Akordai

Lietuvos atlikėjų akordai (1653) Užsienio atlikėjų akordai (894) Rusijos atlikėjų akordai (220)  



Įvairūs "Su gimimo diena"

Peržiūrėtas: 30933
Komentarų: 29 (skaityti / rašyti komentarus)
Įvertinimas: 1.67 / 10 (266 balsų)
Vertinti: vertinimas prieinamas tik registruotiems vartotojams
|-----------------------------3-0-------1-1-0--------| -ploniausia styga.
|---------1-0---------3-1---------1-0----------1-3-1-|
|-0-0-2-0-----0-0-2-0-----0-0------------------------|
|----------------------------------------------------|
|----------------------------------------------------|
|----------------------------------------------------|

su gimimo diena,
su gimimo diena.
su gimo diena,
su gimomo diena...

Akordai.lt neatsako už akordų turinį ar jų šaltinį, nes akordus mums atsiunčia patys vartotojai.
Nežinote kaip groti vieną ar kitą akordą? Visą akordų sąrašą rasite šiuo adresu: http://chords.lt/gitaros-akordu-sarasas

Komentarai:

Greta, 2013-01-09 19:14:15
Niekas cia nesmerkia, jei nemoki tai pasimokink, komentaruose reik rasyt patiko ar ne, ka reiketu pataisyt ir pan., o ne ,,as nemoku, nesuprantu" tai tavo problema, ne to kas cia ka sukure ar idejo.

As, 2012-10-12 19:17:23
Nu tai jaigu ne visi supranta tai kam smerkt ?

klauskit bet ka 861391391man 12, 2012-09-21 18:43:50
galiu pasakyt tik tiek - blogam sokejui ir kiausiniai maiso

Nepasiraes, 2012-06-08 17:30:54
kas nesuprantat tabu skaityt eikit ble ir pagooglinkit idiotai bledes

pro ;DD, 2012-04-21 19:56:19
nsuprantu mokotes groti ir nezinot kaip groti TAB ?????

rqhlisphyy, 2012-03-19 21:41:30
LG1qPA , [url=http://prucezlnkbpq.com/]prucezlnkbpq[/url], [link=http://hhhkpyuifhis.com/]hhhkpyuifhis[/link], http://ppeoumfnwiaz.com/

Eidy, 2012-03-17 08:44:24
You mean I don't have to pay for expert aidcve like this anymore?!

Indrė, 2012-02-17 16:47:45
Samanta14LT- nu styga ploniausia pirma nu tai nuo pirmos rodo ir rodo kokius pirštus ant kokios stygos dėti ;]


gitana.m, 2012-02-17 09:41:13
neteisingai parasyta daina

ROKAS, 2011-10-10 18:53:35
š

marekas, 2011-10-07 14:11:05
romas

loooooll, 2011-04-30 12:51:32
lllllllllllllllllllllllllllllllllllllllllllllllllllllllllllllllllllllllooooooooooooooooooooooooooooooooooooooooooooooooooooooooooooooooolllllllllllllllllllllllllllllllllllllllll

lalalala, 2011-04-04 16:24:00
laisvai galėčiau paaiškint


Nepasiraes, 2011-02-05 18:43:34
|------------------------------------3-0------------------1-1-0--------|
|---------1-0---------3-1-----------------1-1-0--------------------1-3-1-|
|-0-0-2-0-----0-0-2-0-----0-0-----------------------2--------------|
|------------------------------------------------------|
|------------------------------------------------------|
|------------------------------------------------------|


Edvinas, 2011-02-05 18:41:40
|-----------------------------3-0---------1-1-0--------| -ploniausia styga.
|---------1-0---------3-1---------1-1-0----------1-3-1-|
|-0-0-2-0-----0-0-2-0-----0-0-----------2--------------|
|------------------------------------------------------|
|------------------------------------------------------|
|------------------------------------------------------|

6stygos.tik.lt užeikit!


Domantė1996, 2011-01-03 22:06:27
Nesuprantu šitų.

L.T., 2010-11-13 12:10:48
viršutinė eilutė reiškia apatinę stygą, o apatinė viršutinę styga. skaičiukai reiškia kuriam skirsnį užspaust stygą 0 reiškia laisva styga, o kai skaičiukai vienas virš kito reikia grot tom stygom vienu metu


Nepasiraes, 2010-10-27 18:56:29
tie skaiciukai ant stygu raso koks ladas

megstu_uoti, 2010-10-21 20:52:55
Tiesiog youtube'j parašykit: tab lessons

karke, 2010-10-14 11:02:37
taigi labai paprasta yra 6 eilutes kaip ir 6 stygos virsutine eilute yra pirma styga (ploniausia) antra, trecia.. ir t.t. reikia pradeti taip 3 styga nuo apacios groti laisva du kartus veliau uzspausti 2 lada (skirsni) tie numeriukai rodo koki reikia lada uzdengt ir t.t. o kai pavyzdziui viena nata ir po ja dar viena jas reikia grot kartu kapish? :)

paulina man 11 :D , 2010-09-19 12:42:59
jei nesupranti kur deti pirstus atsiskaiciuok nuo ploniausios stygos :)


paulina man 11 :D, 2010-09-19 12:36:42
ko cia nesuprasti? 1 is virsaus styga ant gitaros pati zemiausia o kitos eina i virsu :)



samanta14LT, 2010-08-08 21:20:34
Gal galit padėt, kaip čia reikia tokius suprast?

|-----------------------------3-0-------1-1-0--------| -ploniausia styga.
|---------1-0---------3-1---------1-0----------1-3-1-|
|-0-0-2-0-----0-0-2-0-----0-0------------------------|
|----------------------------------------------------|
|----------------------------------------------------|
|----------------------------------------------------|

Nemoku kaip reikia grot tokiais,


Gintare, 2010-08-05 13:59:04
Nesuprantu kaip cia ka

Nepasiraes, 2010-07-30 18:36:45


Nepasiraes, 2010-07-30 18:36:31


Nepasiraes, 2010-07-30 18:36:08


Nepasiraes, 2010-07-30 18:35:17


kamile, 2010-06-23 18:16:15
kai nera pertvaru as nesuprantu kur pirstu reik deti

Jūsų vardas:

Jūsų komentaras:

Įveskite skaičius iš paveiksliuko: