Akordai

Lietuvos atlikėjų akordai (1653) Užsienio atlikėjų akordai (894) Rusijos atlikėjų akordai (220)  



Andrius Mamontovas "Geltona Zalia raudona bosui"

Atsiuntė: slpmaster1 (rašyti pranešimą)
Peržiūrėtas: 5326
Komentarų: 0 (skaityti / rašyti komentarus)
Įvertinimas: 9 / 10 (2 balsų)
Vertinti: vertinimas prieinamas tik registruotiems vartotojams
Taigi pasigedau šitam tinklapį tabų bosui taigi nusprendžiau įdeti vieną gera daina bosui.


|------------------------------------------|
|-----------2----3-------------------------|
|-----0------------------------------------|
|------------------------------------------|



Priedainis

|------------------------------------------|
|------------------------------------------|
|-----0--0----2--2-------------------------|
|---------------------1--1-1-1-------------|


O čia solo bosui kiek žinau.


|------------------------------------------|
|------------------------------------------|
|-0--0--0--0--0--1--1--1-------------------|
|-------------------------3-3-3-3-3-3-1-1-1|

Po solo bosas eina biški greičiau.

Outro tas pats kaip ir priedainis tik kad groti reikia dažniau.  
Ritmas:
Užsidėkit įrašą ir grokit.

Akordai.lt neatsako už akordų turinį ar jų šaltinį, nes akordus mums atsiunčia patys vartotojai.
Nežinote kaip groti vieną ar kitą akordą? Visą akordų sąrašą rasite šiuo adresu: http://chords.lt/gitaros-akordu-sarasas

Komentarai:
komentarų nėra

Jūsų vardas:

Jūsų komentaras:

Įveskite skaičius iš paveiksliuko: