Akordai

Lietuvos atlikėjų akordai (1653) Užsienio atlikėjų akordai (894) Rusijos atlikėjų akordai (220)  



Pelenai "Lopšinė"

Atsiuntė: Shinigami (rašyti pranešimą)
Peržiūrėtas: 11906
Komentarų: 1 (skaityti / rašyti komentarus)
Įvertinimas: 10 / 10 (1 balsų)
Vertinti: vertinimas prieinamas tik registruotiems vartotojams
E----------|----------|----------|----------|
B----------|----------|----------|----------|
G---5--5-5-|---5--5-5-|----------|----------|
D---5--5-5-|---5--5-5-|---3--3-3-|---5--5-5-|
A-3--------|-3--------|---3--3-3-|---5--5-5-|
E----------|----------|-1--------|-3--------|

E----------|----------|----------|--------|
B---5--5-5-|---5--5-5-|----------|--------|
G---5--5-5-|---5--5-5-|----------|----(5)-|
D----------|----------|---3--3-3-|----(5)-|
A-3--------|-3--------|---3--3-3-|--------|
E----------|----------|-1--------|-3------|

				

			     ...|---------|
			     ...|---------|
			     ...|--3--3-3-|
			     ...|--3--3-3-|
			     ...|1--------|
			     ...|---------|

E----------|----------|----------|----------|
B----------|----------|----------|----------|
G----------|----------|---8--8-8-|----------|
D---3--3-3-|---8--8-8-|---8--8-8-|---6--6-6-|
A---3--3-3-|---8--8-8-|-6--------|---6--6-6-|
E-1--------|-6--------|----------|-4--------|

E----------|----------|----------|----------|
B----------|----------|----------|----------|
G----------|----------|---8--8-8-|---8--8-8-|
D---3--3-3-|---8--8-8-|---8--8-8-|---8--8-8-|
A---3--3-3-|---8--8-8-|-6--------|-6--------|
E-1--------|-6--------|----------|----------|

E----------|----------|----------|----------|----------|----|
B----------|----------|----------|----------|----------|----|
G----------|----------|---8--8-8-|----------|---6--6-6-|----|
D---3--3-3-|---8--8-8-|---8--8-8-|---6--6-6-|---6--6-6-|----|
A---3--3-3-|---8--8-8-|-6--------|---6--6-6-|-4--------|----|
E-1--------|-6--------|----------|-4--------|----------|-3--|

priedainis
E----------|----------|----------|-----------|
B----------|----------|----------|-----------|
G---5--5-5-|----------|---3--3-3-|---8-------|
D---5--5-5-|---3--3-3-|---3--3-3-|---8-----5-|
A-3--------|---3--3-3-|-1--------|-6-------5-|
E----------|-1--------|----------|------3----|
						}2 kartus
E----------|----------|----------|----------|
B----------|----------|----------|----------|
G---5--5-5-|----------|----------|----------|
D---5--5-5-|---3--3-3-|---5--5-5-|---5--5-5-|
A-3--------|---3--3-3-|---5--5-5-|---5--5-5-|
E----------|-1--------|-3--------|-3--------|

Kai aplink šalta žiema
Ir lauke tamsu
Baltas sapnas nusileis
Miegok ir nepabusk
Jis minksta ranka tyliai pasibels
Į namu duris
Ir apklos tave savo šiluma
Vasarą primins


Primins, kaip po saulėtą pievą
Vėjas braidė
Dabino galvą gėlėmis
Ir kaip banga
Plauna smėlį nuo tavo rankų


Tyliai užmerk akis
Lekia sapnai su balta pūga
Beldžias kažkas į duris
Tai pas tave (einu atverti jas užmerk akis ir lauk)

Nebeklausk kur dingsta pėdos
Jas seniai užklojo sniegas
Nebeklausk ar sapnui šalta
Einant pas tave
Miega vėjas jau ir baltos snaigės
Ir kažkur sustoja laikas
Užsimerk ir šiltas sapnas
Vasarą primins
Video:

Akordai.lt neatsako už akordų turinį ar jų šaltinį, nes akordus mums atsiunčia patys vartotojai.
Nežinote kaip groti vieną ar kitą akordą? Visą akordų sąrašą rasite šiuo adresu: http://chords.lt/gitaros-akordu-sarasas

Komentarai:

monita, 2010-11-28 13:16:08
gal kas galit tiesiog virš žodžių surašyt akordus? nes tokio užrašymo nesuprantu, kadangi savamokslė esu.

Jūsų vardas:

Jūsų komentaras:

Įveskite skaičius iš paveiksliuko: