Akordai

Lietuvos atlikėjų akordai (1653) Užsienio atlikėjų akordai (894) Rusijos atlikėjų akordai (220)  



Edvardas Navickas "Lietuvos Himnas (TAB)"

Atsiuntė: NeuroQ (rašyti pranešimą)
Peržiūrėtas: 11421
Komentarų: 7 (skaityti / rašyti komentarus)
Įvertinimas: 10 / 10 (2 balsų)
Vertinti: vertinimas prieinamas tik registruotiems vartotojams
                       Lithuanian National Anthem
                   (tabs written by Edvardas Navickas)

e---------------------------------------------------------------------
B---------------------------------------------------------------------
G-5-0-5-7-9-7-5-7-9-7-9-10-12-14-12-14-12-10-9-7-5-4-7-9-7-5-7-9-7----
D---------------------------------------------------------------------
A---------------------------------------------------------------------
E---------------------------------------------------------------------
Lietuva, Tėvyne mūsų...

e---------------------------------------------------------------------
B---------------------------------------------------------------------
G-5-0-5-7-9-7-5-7-9-7-9-10-12-14-12-14-12-10-9-7-5-4-7-9-7-5-4-5-5----
D---------------------------------------------------------------------
A---------------------------------------------------------------------
E---------------------------------------------------------------------
Tegul Tavo vaikai eina...

e---------------------------------------------------------------------
B---------------------------------------------------------------------
G-7-5-4-5-7-9-7-10-9-7-9-10-12-10-9-14-12-5-10-9-5-10-9-5-4-5-7-9-----
D---------------------------------------------------------------------
A---------------------------------------------------------------------
E---------------------------------------------------------------------
Tegul saulė Lietuvoj...

e---------------------------------------------------------------------
B---------------------------------------------------------------------
G-7-5-4-5-7-9-7-10-9-7-9-10-12-10-9-14-12-5-10-9-5-10-9-5-9-7-5-------
D---------------------------------------------------------------------
A---------------------------------------------------------------------
E---------------------------------------------------------------------
Tegul meilė Lietuvos...
Ritmas:
Na, ritma tikrai zino kiekvienas lietuvis. Tab'ai skirti akustinei gitarai. Butinai pakomentuokite. Aciu! ;]

Akordai.lt neatsako už akordų turinį ar jų šaltinį, nes akordus mums atsiunčia patys vartotojai.
Nežinote kaip groti vieną ar kitą akordą? Visą akordų sąrašą rasite šiuo adresu: http://chords.lt/gitaros-akordu-sarasas

Komentarai:

Artis, 2012-06-05 23:30:51
Puiku mldc. Elektrinei viską perkėliau iš G į D ir tada vietoje D 9, 10, 12 ir 14, nauduoju 4, 5, 7 ir 9. Labai patogu elektrinei. Bet akustinei tavo tab'ai labai super. Šaunuolis!

metal, 2012-02-15 20:31:24
puikiai skamba ir ant elektrines gitaros :)

diamo, 2011-09-29 18:50:11
skamba gerai ;)

Diamo, 2011-09-28 21:04:16
Dekui puikiai skamba ;)

greta, 2011-08-26 11:50:37
o tai gal koki cover'i noretum pqadaryt? :)

NeuroQ, 2011-02-05 15:04:39
Ačiū ;]

Gitarists, 2011-01-27 16:13:37
;) gerai skamba

Jūsų vardas:

Jūsų komentaras:

Įveskite skaičius iš paveiksliuko: