Akordai

Lietuvos atlikėjų akordai (1653) Užsienio atlikėjų akordai (894) Rusijos atlikėjų akordai (220)  



RebelHeart "Ar issaugosi mano meile?"

Peržiūrėtas: 12623
Komentarų: 2 (skaityti / rašyti komentarus)
Įvertinimas: 4.5 / 10 (2 balsų)
Vertinti: vertinimas prieinamas tik registruotiems vartotojams
Rebelheart - Ar issaugosi mano meile?


Intro:

e---0-----------------3---------------------------------------------5-------
B---1----3-----1------3----3-3------------1-------0------1------3-----3-----
G---0-----------------0-2h4-4-4p2-2p0-----0-------0------0------------------
D---2-2/4--4--2p0------ --------------3-------2------2----2/4---4-----4-
A-0-----------------------------------3-----0h2------0----------------------
E-------------------3-------------------------------------------------------

e---0-----------------3------------------------------------2-2-0-0-0h2------
B---1----3-----1------3----3-3------------1-------0--------3-3-3-3-3-3------
G---0-----------------0-2h4-4-4p2-2p0-----0-------0------2---2-2-2-2-2------
D---2-2/4--4--2p0------0--------------3-------2------0-------0-0-0-0------
A-0-----------------------------------3-----0h2-----------------------------
E-------------------3-------------------------------------------------------


Am7
Ar issaugosi mano meile?
C
Lyg tie medziai vasario serksna..
     F            Em                     D
Ar isdrisi ja palyteti kai zvaigzdes is salcio virpes?

Am7
Ar issaugosi mano meile?
C
Lyg tie medziai vasario serksna..
     F                  Em            D
Ar mokesi kaip jie prazydeti geguzio ziedais baltais?



       Bb            Em                 Asus2
Tu isbegsi basa i ugnim liepsnojanti gruoda    | 
    Bb           Em        Asus2               | X2
Savimi pamatuoti tikro jausmo vertes           |



   Am7
Tu atgrezusi veida i vejus               |
    C                                    |
Issipildymo svento lauksi                |
          F                 Em           | X2
Gal per gruoda per skambu gruoda         |
                D                        |
(garsiai) Tavo laime skaudi ateis        |


C (332010)

Bb (688766)

Akordai.lt neatsako už akordų turinį ar jų šaltinį, nes akordus mums atsiunčia patys vartotojai.
Nežinote kaip groti vieną ar kitą akordą? Visą akordų sąrašą rasite šiuo adresu: http://chords.lt/gitaros-akordu-sarasas

Komentarai:

loreta, 2012-10-08 12:50:32
na as groju zemyn zemyn aukstyn aukstyn zemyn aukstyn zemyn
Ir vietoj Am7 man labiau tinka paprastas Am


;], 2012-08-25 20:29:49
Kokiu ritmika?

Jūsų vardas:

Jūsų komentaras:

Įveskite skaičius iš paveiksliuko: