Akordai

Lietuvos atlikėjų akordai (1653) Užsienio atlikėjų akordai (894) Rusijos atlikėjų akordai (220)  



Andrius Mamontovas "Saldi.juoda.naktis"

Peržiūrėtas: 5818
Komentarų: 0 (skaityti / rašyti komentarus)
Įvertinimas: nėra
Vertinti: vertinimas prieinamas tik registruotiems vartotojams
-------------------------------------------------------------------------------
     Saldi.Juoda.Naktis – Andrius Mamontovas
-------------------------------------------------------------------------------
Tabbed by:Gediminas(Gralis)
Email:gedimixas@yahoo.com

Tuning:EADGBe

e|------------------------0-----------------|----------------0---------------|
B|------------------------------------------|--------------------------------|
G|--------------13------------------13------|--------13---------------13-----|
D|---------11-------11---------11-------11--|----11------11-------11------11-|
A|-----0------------------------------------|--------------------------------|
E|------------------------------------------|--0-----------------------------|


Priedainis:
e|----------------------------------|----------------------------------------|
B|--------------------5-------------|----------------5-----------------------|
G|------------4---------------4-----|---------4-------------4----------------|
D|--------2-------2-------2------2--|------2-----2-------2-----2-------------|
A|----4-----------------------------|---0------------------------------------|
E|----------------------------------|----------------------------------------|

e|---------------------------------------------------------------------------|
B|----------------------5----------------------------------------------------|
G|--------------4-------------4----------------------------------------------|
D|-----------2-----2-------2-----2-------------------------------------------|
A|---------------------------------------------------------------------------|
E|----0----------------------------------------------------------------------|


Žodziai:

Prisimini, kaip minioje pasmerkti mes stovejom?
Prisimeni, kaip negalejom nebuti kartu?
Prisimini, kaip su visais pasroviui nenorejom?
Aš vis dar akimirkoj toj stebuklingoj esu


  Tik saldi, juoda, naktis
  Pasibeldžia į duris
  Iš giliausiu vandenų
  Kyla tūkstančiai laivų

Palaimintas tas kuris eina per lūštantį ledą
Kaip kunigas šviečiantis visas po meilės nakties
Ar tu vis dar nori atrast tai, ko niekas neatrado?
Ar mes susitiksime vėl anapus mirties?

Mes vejamės nuolat nuo mūsų tolstantį Dieva
Ir kartais atrodo, kad niekas nebeturi vilties
Bet jei paziuretum aplinkuj - vien žydinti pieva
Rytojaus nera, kaip nebėra praeities

Faina daina :)

Akordai.lt neatsako už akordų turinį ar jų šaltinį, nes akordus mums atsiunčia patys vartotojai.
Nežinote kaip groti vieną ar kitą akordą? Visą akordų sąrašą rasite šiuo adresu: http://chords.lt/gitaros-akordu-sarasas

Komentarai:
komentarų nėra

Jūsų vardas:

Jūsų komentaras:

Įveskite skaičius iš paveiksliuko: