Akordai

Lietuvos atlikėjų akordai (1653) Užsienio atlikėjų akordai (894) Rusijos atlikėjų akordai (220)  



Šležas "rycka"

Peržiūrėtas: 10174
Komentarų: 2 (skaityti / rašyti komentarus)
Įvertinimas: 9.34 / 10 (50 balsų)
Vertinti: vertinimas prieinamas tik registruotiems vartotojams
[Intro]
E|--------------------------------------------------------------3-|
B|-----1---0h1-1---------1---0h1-1----------1---0h1-1---------0-0-|
G|----------------------------------------------------------0---0-|
D|---2---2-------2---------2-------2------2---2-------2---0-------|
A|-0-------------------0-------------0-3----------------3---------|
E|-----------------0-1--------------------------------------------|


[Verse]
   Am              F               C                G
E|---0---0---0---0---1---1---1---1---0---0---0----0---3---3---3---3-|
B|---1---1---1---1---1---1---1---1---1---1---1----1---0---0---0---0-|
G|---2---2---2---2---2---2---2---2---0---0---0----0---0---0---0---0-|
D|-----2-------2-----------------------2-------2--------------------|
A|-0-------0-----------3-------3---3-------3------------2-------2---|
E|-----------------1-------1------------------------3-------3-------|


Karta sutikau vaikina   |
Ji visi rycka vadino    |
Jis neruko nesikeikia   |
Ir man akyte pamerkia   |
                        |-- Po viena perbraukima per akorda
Jo marskinukai aptempti |
Raumenukai papusti      |
Jis miesto paziba       |
O as kaimiete paprasta  |

Turi jis daug pinigu
Nors man tai ir nesvarbu
Svarbu kad jis pamiltu mane
Ir tada man bus gana

Ka daryti as turiu
Kad myletum viena tu
Gal lenciuga tau uzrist
Ir busi tu mano vergu

O rycka rycka
Tu beprotiskai grazus
O rycka rycka
Tu afigienai patrauklus

O rycka rycka
Mano kunas troksta to
Ka moki duoti
Ka moki duoti juk visom

Lala lala laj

Jo fantastiski plaukai
Lupos saldzios kaip ledai
Saldainiukas jis yra
Pauksciu pienas tralialia

Be jo gyventi negaliu
Vis galvoju ir tikiu
Kad busime visada kartu
Kaip tie balandziai tarp debesu

Bet toks gyvenimas yra
Pasvajot juk galima
Zinau manes tu nepamilsi
Tu tik iskaudinsi ir nuvilsi

Va tokia istorija
Kuria atsiminsiu visada
Stai kas ta meile yra
Viskas ima ir subyra

Vau!

O rycka rycka
Tu beprotiskai grazus
O rycka rycka
Tu afigienai patrauklus

O rycka rycka
Mano kunas troksta to
Ka moki duoti
Ka moki duoti juk visom

Lala lala laj

Lala lalalalaj

Akordai.lt neatsako už akordų turinį ar jų šaltinį, nes akordus mums atsiunčia patys vartotojai.
Nežinote kaip groti vieną ar kitą akordą? Visą akordų sąrašą rasite šiuo adresu: http://chords.lt/gitaros-akordu-sarasas

Komentarai:

Nepasiraes, 2011-03-03 21:43:03
per 5 minutes ismokau:D


Minde, 2011-01-20 09:07:56
Blyn sunkoka :D

Jūsų vardas:

Jūsų komentaras:

Įveskite skaičius iš paveiksliuko: