Akordai

Lietuvos atlikėjų akordai (1653) Užsienio atlikėjų akordai (894) Rusijos atlikėjų akordai (220)  



Naktinės Personos "Kai jausmai uzvaldo"

Atsiuntė: ramis (rašyti pranešimą)
Peržiūrėtas: 13714
Komentarų: 0 (skaityti / rašyti komentarus)
Įvertinimas: 7.73 / 10 (123 balsų)
Vertinti: vertinimas prieinamas tik registruotiems vartotojams
Labai cool skamba. Viskas beveik kaip
originalas. PABANDIKYTE !

INTRO ir MAIN PART:
|-----------------------------------------|
|-----4-------3---------------3-----------|
|---0---0---0---0-----5-----3---3---------|
|-------------------6---6-----------------|
|-3-------1---------------1---------------|
|-----------------4-----------------------|

PRIEDAINIS (D1):
|-----3-----------------------------------|
|-------------3-------4-------3-----------|
|---3---3---0---0---0---0---3---3---------|
|-1---------------------------------------|
|-----------------3-------1---------------|
|---------3-------------------------------|

PRIEDAINIS (D2):
|-----------------------------------------|
|-------------3-------------3-4-1-3-------|
|-----5-----3---3-----5-------------------|
|---6---6-----------6---6-----------------|
|---------1---------------1---------------|
|-4---------------4-----------------------|

DAINOS STRUKTURA:
  INTRO
  MAIN x 4             <--
  PRIEDAINIS (D1) x 2    |
  PRIEDAINIS (D2)    ---->

DAINOS TEKSTAS:

mintys nuneša mane į geismų ir skausmo pilį
pasijuntu kaip sapne kai jausmai užvaldo širdį
iš anapus sugrįžtu pilnas neaiškių dvejonių
ar pavyks ar aš galiu laukti iš viršaus malonės

Priedainis:
-----------

kaip norėčiau apkabinti ir prisiglaust šalia
prie paskirto man likimo ir mylėt dvasia

prisidengusi mirtis tūkstančiais veidų
išsirink kuris tau tiks nedaryk klaidų
nemanau kad man iėjus pro dangaus vartus
mano siela nusidėjus lauks ramiai kas bus

PRIEDAINIS

mintys nuneša mane į geismų ir skausmo pilį
pasijuntu kaip sapne kai jausmai užvaldo širdį
iš anapus sugrįžtu pilnas neaiškių dvejonių
ar pavyks ar aš galiu laukti iš viršaus malonės

Akordai.lt neatsako už akordų turinį ar jų šaltinį, nes akordus mums atsiunčia patys vartotojai.
Nežinote kaip groti vieną ar kitą akordą? Visą akordų sąrašą rasite šiuo adresu: http://chords.lt/gitaros-akordu-sarasas

Komentarai:
komentarų nėra

Jūsų vardas:

Jūsų komentaras:

Įveskite skaičius iš paveiksliuko: