Akordai

Lietuvos atlikėjų akordai (1653) Užsienio atlikėjų akordai (894) Rusijos atlikėjų akordai (220)  



Arbata "Linkejimai tau"

Atsiuntė: Benskis (rašyti pranešimą)
Peržiūrėtas: 10718
Komentarų: 2 (skaityti / rašyti komentarus)
Įvertinimas: 10 / 10 (10 balsų)
Vertinti: vertinimas prieinamas tik registruotiems vartotojams

E|-3-----3-----3---5-----3-----2--|-3-----3-----3---5-----3-----2--|
B|---0-----0-----0---0-----0-----0|---0-----0-----0---0-----0-----0|
G|-----0-----0---------0-----0----|-----0-----0---------0-----0----|
D|--------------------------------|--------------------------------|
A|--------------------------------|--------------------------------|
E|-3------------------------------|-0------------------------------|

E|-0-----3-----3---3-----2-----3--|-3-----3-----3---2-----0-----2--|
B|---1-----1-----1---3-----3-----3|---3-----3-----3---3-----3-----3|
G|-----0-----0---------2-----2----|-----0-----0---------2-----2----|
D|-----------------0--------------|-----------------0--------------|
A|-3------------------------------|--------------------------------|
E|--------------------------------|-3------------------------------|


Žinai, man vėjas seka pasakas:
Kaip nuostabu keliaut svetur.
O man gražiausia pasaka - tai tu.
Aš būsiu didelis kaip mėlynas dangus,
Laimingas kaip pavasaris
kartodamas aš tau žodžius.

(pried.)
Tegul pasaulis eina po velnių,
kai tau sunku, kai tau graudu.
Tegul diena bus apsiniaukusi, šalta.
Tai jau ne taip, ne taip svarbu,
Svarbu suprast - kol mes kartu,
Gyvenimas mums bus ne toks baugus.

Bijau išauš diena baltam sode,
Paliks mane, pamirš mane
Šita diena, o gal kita.
O tu sakai, kad nieko amžino nėra,
Tai netiesa, tiesa tik ta - 
Kas dievo duota, tas amžina yra.

(čia prasideda akordais)
 G                 
Tegul pasaulis eina po velnių,
 Em
kai tau sunku, kai tau graudu.
 C7                  Dadd9          G     D
Tegul diena bus apsiniaukusi, šalta.
 G  
Tai jau ne taip, ne taip svarbu,
 Em
Svarbu suprast - kol mes kartu,
 C7             Dadd9          G   D
Gyvenimas mums bus ne toks baugus.
 

Akordai.lt neatsako už akordų turinį ar jų šaltinį, nes akordus mums atsiunčia patys vartotojai.
Nežinote kaip groti vieną ar kitą akordą? Visą akordų sąrašą rasite šiuo adresu: http://chords.lt/gitaros-akordu-sarasas

Komentarai:

derezas, 2013-02-19 11:41:17
E EILE LABAI MAN SUNKI

asss, 2011-05-19 20:56:26
Pasakykit koks rimtmas braukimo aciu

Jūsų vardas:

Jūsų komentaras:

Įveskite skaičius iš paveiksliuko: