Akordai

Lietuvos atlikėjų akordai (1653) Užsienio atlikėjų akordai (894) Rusijos atlikėjų akordai (220)  



Requiem "Kaip Kas?"

Atsiuntė: Savicius (rašyti pranešimą)
Peržiūrėtas: 1968
Komentarų: 0 (skaityti / rašyti komentarus)
Įvertinimas: nėra
Vertinti: vertinimas prieinamas tik registruotiems vartotojams
Intro:

e|-----------------|-----------------|
B|-----0-----------|-----0-----------|  Cha Cha Cha...
G|-------2b--------|-------2b--------|
D|---2-------2---2-|---2-------------|
A|-0-----------0---|-0---------------|
E|-----------------|-----------------|

e|-----------------|       
B|-----0-----------|       
G|-------2b--------|       
D|---2-------2---2-| X4  
A|-0-----------0---|
E|-----------------|

e|-----------------|
B|-----------------|
G|-----------------|
D|--7---------/2---|
A|--7---------/2---|
E|--5---------/0---|

tada  

E5, G#5, C#5, A5



Verse:

Em      G#          Em     G#
   Mintyse nuo vyno stogas plauks
Em      G#             Em     G#
   Pasislėpt už stiklo neišeina
Em      G#          Em     G#   
   Aš bandau pabėgti nuo savęs
Em      G#          Em     G#
   Stoviu žemėj ir matau kaip kyla mano kaina

Chorus:

   E5 G#5 C#5   A5 
   Hey... mano mintys
   E5 G#5 C#5   A5  
   hey... Vėl dabintis 
   E5 G#5 C#5   A5 
   negaliu neišeina
   E5    G#5  C#5   A5 
   Ne ne ne   man negaila

Post Chorus:

D|--2--7--5--2--5-5--5--5--x-x-|--2--7--5--2--7-7--7--7--x-x-|
A|--2--7--5--2--5-5--5--5--x-x-|--2--7--5--2--7-7--7--7--x-x-|
E|--0--5--3--0--3-3--3--3--x-x-|--0--5--3--0--5-5--5--5--x-x-|

(Shia dali reik grot labai greit)



Vėl ir vėl bandau sukurti daina
Mintyse man nebaisu tyla
Aš rašau kažko tai klaikų melą
O visi paskiau meluoja man kad tai tiesa

Aš apsimetu labai protingu
Bet visi juk žino kad esu kvailys
Man tikrai negaila tai ne darbas
Viskas vėl iš naujo aš turiu pakelt akis

Video:

Akordai.lt neatsako už akordų turinį ar jų šaltinį, nes akordus mums atsiunčia patys vartotojai.
Nežinote kaip groti vieną ar kitą akordą? Visą akordų sąrašą rasite šiuo adresu: http://chords.lt/gitaros-akordu-sarasas

Komentarai:
komentarų nėra

Jūsų vardas:

Jūsų komentaras:

Įveskite skaičius iš paveiksliuko: