Akordai

Lietuvos atlikėjų akordai (1653) Užsienio atlikėjų akordai (894) Rusijos atlikėjų akordai (220)  



Rondo "Aukštumos (geresne versija(su tab))"

Peržiūrėtas: 13601
Komentarų: 2 (skaityti / rašyti komentarus)
Įvertinimas: 6 / 10 (2 balsų)
Vertinti: vertinimas prieinamas tik registruotiems vartotojams
G   Em     C       D
Jei jus manim patikesit
    G     Em     C         D
Bus gerai gerai gerai mums bus
G     Em      C       D
Tegul tegul siaurus vejai
      G       Em       C        D
Mus draskys draskys draskys per pus



PR.
                    G
Netikek ka priesai suoks
H7                Em
Ka snekes tau svetimi
C                Am
Sis gyvenimas kitoks
D              G
Reikia buti savimi /2x 


G    Em    C         D
Gal mes kada tai pamirsim
    G    Em        C   D
Bet to neivyks juk niekada
G      Em    C         D
Tegul gelme taps pavirsium
   G     Em      C      D
O tiesa paliks didzia klaida



PR.
                     G
Netikek ka priesai suoks...


777-55--7------777-55------888-77-58----7-55-----
-------8--------------88---------------------88--
--------------------------------------77---------
-------------------------------------------------
-------------------------------------------------
-------------------------------------------------

Akordai.lt neatsako už akordų turinį ar jų šaltinį, nes akordus mums atsiunčia patys vartotojai.
Nežinote kaip groti vieną ar kitą akordą? Visą akordų sąrašą rasite šiuo adresu: http://chords.lt/gitaros-akordu-sarasas

Komentarai:

Mindaugas, 2013-01-27 20:21:13
o gal galima gaut natas šios dainos, o ne akordus?

vitalis112, 2011-12-07 11:00:24
viskas gal ir gerai butu bet tabose 1 klaida padarei.
777-55--7------777-55------888-77-58----7-55-----
-------8--------------78---------------------88--
--------------------------------------77---------


Jūsų vardas:

Jūsų komentaras:

Įveskite skaičius iš paveiksliuko: