Akordai

Lietuvos atlikėjų akordai (1653) Užsienio atlikėjų akordai (894) Rusijos atlikėjų akordai (220)  



SEL "Parašyk man laišką iš paryžiaus"

Peržiūrėtas: 20406
Komentarų: 4 (skaityti / rašyti komentarus)
Įvertinimas: 6.75 / 10 (4 balsų)
Vertinti: vertinimas prieinamas tik registruotiems vartotojams
Intro:

|------------4--3---|-------------4--3---|------------4--3---|---------------1---
|------------4--4---|-------------4--4---|------------4--4---|-------------------
|-------------------|--------------------|-------------------|---------2---------
|---3---------------|----------3---------|---3---------------|---3---------------
|-------------------|--------------------|-------------------|-------------------
|-------------------|--------------------|-------------------|-------------------


|------------8--6---|-------------8--6---|----------6--4-----|---------------1---
|------------8--8---|-------------8--8---|----------6--4-----|-------------------
|-------------------|--------------------|-------------------|-------------------
|---6---------------|----------6---------|---4---------------|---3---------------
|-------------------|--------------------|-------------------|-------------------
|-------------------|--------------------|-------------------|-------------------


Posmai:

|------------4--3---|-------------4--3---|------------4--3---|------------4--8---
|------------4--4---|-------------4--4---|------------4--4---|------------4--8---
|-------------------|--------------------|-------------------|-------------------
|---3---------------|----------3---------|---3---------------|-------------------
|-------------------|--------------------|-------------------|-------------------
|-------------------|--------------------|-------------------|-------------------

|-------------------|-------------8--6---|------------6--4---|---------------1---
|------------4p-----|-------------8--8---|------------6--4---|-------------------
|------------4p-----|--------------------|-------------------|---------2---------
|---3---------------|----------6---------|---4---------------|---3---------------
|-------------------|--------------------|-------------------|-------------------
|-------------------|--------------------|-------------------|-------------------

Mazyte grazi uzsispyrus mergyte 
Atsiseda prie veidrodzio ir pradeda dazytis 
Pabaigus makiaza, ji naudojasi ta proga 
Kad mamos nera namie, israusia jos garderoba 
Is eiles matuojasi visus mamos rubus 
Ir maivosi pries veidrodi linguodama klubais 
Kambarys jos svajonese pavirsta rumais 
O mamos sukneles madingiausiais kostiumais 
Ji nuzvelgia savo figura atidziai 
Po to Klaudijos Sifer nuotrauka pavydziai 
Slapciausios jos svajones, gyvenimo kryzius 
Ji taip troksta dirbti manekene Paryziuj 
Bet laikrodzio rodykle arteja prie sesiu 
Tuoj tevai sugris namo, reikia sest prie pamoku 
Ji sutvarko drabuzius ir plauna veida dazyta 
Pavirsta vel iprasta mazyte mergyte 

Nei jos tevai, nei jos draugai rimtai neziuri i tai 
Ir as gana daznai sakydavau jai juokais 
Kai tu tapsi zvaigzde pasaulinio dydzio 
Parasyk man, parasyk man laiska is Paryziaus 

Ji uzaugo grazi, uzsispyrus mergaiciuke 
Ir i gulbe pavirto is bjauraus anciuko 
Dabar jos apimtys, ugis ir svoris 
Pasauliniu standartu, auksciausia kategorija 
Jinai parase pareiskima dalyvauti konkurse 
Graziausios merginos rinkimuose mieste 
Pirma mis karuna ji laimi be apgaules, 
Pries ja atsiveria visas baltas pasaulis 

Nei jos tevai, nei jos draugai rimtai neziuri i tai 
Ir as gana daznai sakydavau jai juokais 
Kai tu tapsi zvaigzde pasaulinio dydzio 
Parasyk man, parasyk man laiska is Paryziaus 

Linksma, grazi, uzsispyrus mergyte 
Isvaziuoja i Paryziu karjeros daryti 
Su manim atsisveikindama asara braukia 
Ji nezino, kas jos svetimoj saly laukia 
Bega metai, o pasto dezute tuscia 
Ji pamirso viena mane cia 
Taip niekada ji ir negrizo 
Taip ir neparase laisko is Paryziaus 

Nei jos tevai, nei jos draugai rimtai neziuri i tai 
Ir as gana daznai sakydavau jai juokais 
Kai tu tapsi zvaigzde pasaulinio dydzio 
Parasyk man, parasyk man laiska is Paryziaus

Akordai.lt neatsako už akordų turinį ar jų šaltinį, nes akordus mums atsiunčia patys vartotojai.
Nežinote kaip groti vieną ar kitą akordą? Visą akordų sąrašą rasite šiuo adresu: http://chords.lt/gitaros-akordu-sarasas

Komentarai:

Domantas, 2012-05-20 09:47:03
4p - Tai reiškia jog ant ketvirto skirsnio, įsiskambėjus stygai reikia atitraukti pirštus nuo jos.

Silvija, 2011-07-23 23:39:54
O rimtai ką reiškia 4p???

Arnas, 2011-07-14 19:28:16
pull, reikia vidury skambėjimo atitraukt pirštus nuo stygos

Simona, 2011-07-12 17:38:25
Viską supratau, išskyrus tai: ką reiškia 4p?

Jūsų vardas:

Jūsų komentaras:

Įveskite skaičius iš paveiksliuko: