Akordai

Lietuvos atlikėjų akordai (1653) Užsienio atlikėjų akordai (894) Rusijos atlikėjų akordai (220)  



Senas Kuinas "Virš Mano Namo"

Peržiūrėtas: 3393
Komentarų: 0 (skaityti / rašyti komentarus)
Įvertinimas: nėra
Vertinti: vertinimas prieinamas tik registruotiems vartotojams
e|---------------------------------|---------------------------------|
B|---------------------------------|---------------------------------|
G|---------------------------------|---------------------------------|
D|---------------------------------|---------------------------------|
A|--2----2--4----4--2----2--4---4--|--2----2--4----4--2----2--4---4--|
E|--0----0--0----0--0----0--0---0--|--0----0--0----0--0----0--0---0--|


e|---------------------------------|---------------------------------|
B|---------------------------------|---------------------------------|
G|---------------------------------|---------------------------------|
D|---------------------------------|---------------------------------|
A|--2----2--4----4--2----2--4---4--|--2----2--4----4--2----2--4h5h4--|
E|--0----0--0----0--0----0--0---0--|--0----0--0----0--0----0--0------|
         virs mano namo                  saule pateka

e|---------------------------------|---------------------------------|
B|---------------------------------|---------------------------------|
G|---------------------------------|---------------------------------|
D|--2----2--4----4--2----2--4---4--|--2----2--4----4--2----2--4h5h4--|
A|--0----0--0----0--0----0--0---0--|--0----0--0----0--0----0--0------|
E|---------------------------------|---------------------------------|
         virs mano namo                virs mano namo  saule pateka

e|---------------------------------|---------------------------------|
B|---------------------------------|---------------------------------|
G|---------------------------------|---------------------------------|
D|---------------------------------|---------------------------------|
A|--2----2--4----4--2----2--4---4--|--2----2--4----4--2----2--4---4--|
E|--0----0--0----0--0----0--0---0--|--0----0--0----0--0----0--0---0--|


e|---------------------------------|---------------------------------|
B|---------------------------------|---------------------------------|
G|---------------------------------|---------------------------------|
D|--4----4--6----6--4----4--6s7s6--|--2----2--4----4--2----2--4h5h4--|
A|--2----2--2----2--2----2--2------|--0----0--0----0--0----0--0------|
E|---------------------------------|---------------------------------|
        tai lyg grazi                 grazi pasaka

e|---------------------------------|---------------------------------|
B|---------------------------------|---------------------------------|
G|---------------------------------|---------------------------------|
D|---------------------------------|--4----4--6----6--4----4--6s7s6--|
A|--2----2--4----4--2----2--4h5h4--|--2----2--2----2--2----2--2------|
E|--0----0--0----0--0----0--0------|---------------------------------|
    kuria kas ryta                     saule paseka

e|----------------------------------------------------------|
B|----------------------------------------------------------|
G|----------------------------------------------------------|
D|--6---6--6--6--6--6--6h8--6-------------------------------|
A|--4---4--4--4--4--4--4----4----2---2--2--2--2--2--2h4--2--|
E|-------------------------------0---0--0--0--0--0--0----0--|
    bet as negrisiu              as negrisiu namo nes

e|----------------------------------------------------------|
B|----------------------------------------------------------|
G|----------------------------------------------------------|
D|----------------------------------------------------------|
A|--4---4--4--4--4--4--4h6--4---/9--9-9-9-9-9-9-------------|
E|--2---2--2--2--2--2--2----2---/7--7-7-7-7-7-7-------------|
    laikas negydo zaizdu       jis tik keicia zmones

e|---------------------------------|---------------------------------|
B|---------------------------------|---------------------------------|
G|---------------------------------|---------------------------------|
D|---------------------------------|---------------------------------|
A|--2----2--4----4--2----2--4---4--|--2----2--4----4--2----2--4---4--|
E|--0----0--0----0--0----0--0---0--|--0----0--0----0--0----0--0---0--|


e|---------------------------------|---------------------------------|
B|---------------------------------|---------------------------------|
G|---------------------------------|---------------------------------|
D|---------------------------------|---------------------------------|
A|--2----2--4----4--2----2--4---4--|--2----2--4----4--2----2--4h5h4--|
E|--0----0--0----0--0----0--0---0--|--0----0--0----0--0----0--0------|
         virs mano namo                  debesys kaip vilna

e|---------------------------------|---------------------------------|
B|---------------------------------|---------------------------------|
G|---------------------------------|---------------------------------|
D|--2----2--4----4--2----2--4---4--|--2----2--4----4--2----2--4h5h4--|
A|--0----0--0----0--0----0--0---0--|--0----0--0----0--0----0--0------|
E|---------------------------------|---------------------------------|
         virs mano namo              virs mano namo debesys balti kaip vilna

e|---------------------------------|---------------------------------|
B|---------------------------------|---------------------------------|
G|---------------------------------|---------------------------------|
D|---------------------------------|---------------------------------|
A|--2----2--4----4--2----2--4---4--|--2----2--4----4--2----2--4h5h4--|
E|--0----0--0----0--0----0--0---0--|--0----0--0----0--0----0--0------|


e|---------------------------------|---------------------------------|
B|---------------------------------|---------------------------------|
G|---------------------------------|---------------------------------|
D|--4----4--6----6--4----4--6s7s6--|--2----2--4----4--2----2--4h5h4--|
A|--2----2--2----2--2----2--2------|--0----0--0----0--0----0--0------|
E|---------------------------------|---------------------------------|
        virs mano namo debesys           minksti kaip vilna

e|---------------------------------|---------------------------------|
B|---------------------------------|---------------------------------|
G|---------------------------------|---------------------------------|
D|---------------------------------|--4----4--6----6--4----4--6s7s6--|
A|--2----2--4----4--2----2--4h5h4--|--2----2--2----2--2----2--2------|
E|--0----0--0----0--0----0--0------|---------------------------------|
        tik kodel liudesio jose       tiek pilna

e|----------------------------------------------------------|
B|----------------------------------------------------------|
G|----------------------------------------------------------|
D|--6---6--6--6--6--6--6h8--6-------------------------------|
A|--4---4--4--4--4--4--4----4----2---2--2--2--2--2--2h4--2--|
E|-------------------------------0---0--0--0--0--0--0----0--|
     ir as negrisiu              as negrisiu namo nes


e|----------------------------------------------------------|
B|----------------------------------------------------------|
G|----------------------------------------------------------|
D|----------------------------------------------------------|
A|--4---4--4--4--4--4--4h6--4---/9--9-9-9-9-9-9-------------|
E|--2---2--2--2--2--2--2----2---/7--7-7-7-7-7-7-------------|
    laikas negydo zaizdu       jis tik keicia zmones




e|---------------------------------|---------------------------------|
B|---------------------------------|---------------------------------|
G|---------------------------------|---------------------------------|
D|---------------------------------|---------------------------------|
A|--2----2--4----4--2----2--4---4--|--2----2--4----4--2----2--4---4--|
E|--0----0--0----0--0----0--0---0--|--0----0--0----0--0----0--0---0--|


e|---------------------------------|---------------------------------|
B|---------------------------------|---------------------------------|
G|---------------------------------|---------------------------------|
D|---------------------------------|---------------------------------|
A|--2----2--4----4--2----2--4---4--|--2----2--4----4--2----2--4h5h4--|
E|--0----0--0----0--0----0--0---0--|--0----0--0----0--0----0--0------|
         virs mano namo               virs mano namo pauksciai sklando

e|---------------------------------|---------------------------------|
B|---------------------------------|---------------------------------|
G|---------------------------------|---------------------------------|
D|--2----2--4----4--2----2--4h5h4--|--2----2--4----4--2----2--4h5h4--|
A|--0----0--0----0--0----0--0------|--0----0--0----0--0----0--0------|
E|---------------------------------|---------------------------------|
         virs mano namo              virs mano namo pauksciai sklando

e|---------------------------------|---------------------------------|
B|---------------------------------|---------------------------------|
G|---------------------------------|---------------------------------|
D|---------------------------------|---------------------------------|
A|--2----2--4----4--2----2--4h5h4--|--2----2--4----4--2----2--4h5h4--|
E|--0----0--0----0--0----0--0------|--0----0--0----0--0----0--0------|


e|---------------------------------|---------------------------------|
B|---------------------------------|---------------------------------|
G|---------------------------------|---------------------------------|
D|--4----4--6----6--4----4--6s7s6--|--2----2--4----4--2----2--4h5h4--|
A|--2----2--2----2--2----2--2------|--0----0--0----0--0----0--0------|
E|---------------------------------|---------------------------------|
        virs mano namo            pauksciai duksta

e|---------------------------------|---------------------------------|
B|---------------------------------|---------------------------------|
G|---------------------------------|---------------------------------|
D|---------------------------------|--4----4--6----6--4----4--6s7s6--|
A|--2----2--4----4--2----2--4h5h4--|--2----2--2----2--2----2--2------|
E|--0----0--0----0--0----0--0------|---------------------------------|
        bet pamegink surast           nors viena luksta

e|----------------------------------------------------------|
B|----------------------------------------------------------|
G|----------------------------------------------------------|
D|--6---6--6--6--6--6--6h8--6-------------------------------|
A|--4---4--4--4--4--4--4----4----2---2--2--2--2--2--2h4--2--|
E|-------------------------------0---0--0--0--0--0--0----0--|
     ir as negrisiu              as negrisiu namo nes

e|----------------------------------------------------------|
B|----------------------------------------------------------|
G|----------------------------------------------------------|
D|----------------------------------------------------------|
A|--4---4--4--4--4--4--4h6--4---/9--9-9-9-9-9-9-------------|
E|--2---2--2--2--2--2--2----2---/7--7-7-7-7-7-7-------------|
    laikas negydo zaizdu       jis tik keicia zmones


Solo

e|---------12--15--15-------15----12--15-------|
B|--12h15--------------------------------------|
G|---------------------------------------------|
D|---------------------------------------------|
A|---------------------------------------------|
E|---------------------------------------------|

e|---------12--15--15-------15----12-----------|
B|--12h15--------------------------------------|
G|---------------------------------------------|
D|---------------------------------------------|
A|---------------------------------------------|
E|---------------------------------------------|

e|---------12--15--15-------15----12--15-------|
B|--12h15--------------------------------------|
G|---------------------------------------------|
D|---------------------------------------------|
A|---------------------------------------------|
E|---------------------------------------------|

e|---------12--15--15-------15----12-----------|
B|--12h15--------------------------------------|
G|---------------------------------------------|
D|---------------------------------------------|
A|---------------------------------------------|
E|---------------------------------------------|

e|---------12--15--15-------15----12--15-------|
B|--12h15--------------------------------------|
G|---------------------------------------------|
D|---------------------------------------------|
A|---------------------------------------------|
E|---------------------------------------------|

e|---------12--15--15-------15----12-----------|
B|--12h15--------------------------------------|
G|---------------------------------------------|
D|---------------------------------------------|
A|---------------------------------------------|
E|---------------------------------------------|

Akordai.lt neatsako už akordų turinį ar jų šaltinį, nes akordus mums atsiunčia patys vartotojai.
Nežinote kaip groti vieną ar kitą akordą? Visą akordų sąrašą rasite šiuo adresu: http://chords.lt/gitaros-akordu-sarasas

Komentarai:
komentarų nėra

Jūsų vardas:

Jūsų komentaras:

Įveskite skaičius iš paveiksliuko: