Akordai

Lietuvos atlikėjų akordai (1653) Užsienio atlikėjų akordai (894) Rusijos atlikėjų akordai (220)  



Senas Kuinas "Virš Mano Namo"

Peržiūrėtas: 2138
Komentarų: 0 (skaityti / rašyti komentarus)
Įvertinimas: nėra
Vertinti: vertinimas prieinamas tik registruotiems vartotojams
BASS

(priedainis)
G|----------------------------------------------------------|
D|----------------------------------------------------------|
A|--4---4--4--4--4--4--4----4-------------------------------|
E|-------------------------------0---0--0--0--0--0--0----0--|

G|----------------------------------------------------------|
D|----------------------------------------------------------|
A|----------------------------------------------------------|
E|--2---2--2--2--2--2--2----2---/7--7-7-7-7-7-7-------------|


(solo)
G|----------------------------------------|
D|----------------------------------------|
A|----------------------------------------|
E|--------------------------------------0-|

G|----------------------------------------|
D|----------------------------------------|
A|----------------------------------------|
E|-0-0--0-0--0-0--0-0--0-0--0-0--0-0--0-0-|


G|----------------------------------------|
D|----------------------------------------|
A|--------------------------------------0-|
E|-0-0--0-0--0-0--0-0--0-0--0-0--0-0--0---|


G|----------------------------------------|
D|----------------------------------------|
A|-0-0--0-0--0-0--0-0--0-0--0-0--0-0--0---|
E|--------------------------------------0-|

G|----------------------------------------|
D|----------------------------------------|
A|--------------------------------------2-|
E|-0-0--0-0--0-0--0-0--0-0--0-0--0-0--0---|

G|----------------------------------------|
D|----------------------------------------|
A|-2-2--2-2--2-2--2-0--0-0--0-0--0-0--0---|
E|--------------------------------------0-|

G|----------------------------------------|
D|----------------------------------------|
A|------------------2---------------------|
E|-0-0--0-0--0-0--0---------0-------------|

Akordai.lt neatsako už akordų turinį ar jų šaltinį, nes akordus mums atsiunčia patys vartotojai.
Nežinote kaip groti vieną ar kitą akordą? Visą akordų sąrašą rasite šiuo adresu: http://chords.lt/gitaros-akordu-sarasas

Komentarai:
komentarų nėra

Jūsų vardas:

Jūsų komentaras:

Įveskite skaičius iš paveiksliuko: