Akordai

Lietuvos atlikėjų akordai (1653) Užsienio atlikėjų akordai (894) Rusijos atlikėjų akordai (220)  



Kostas Smoriginas "Apokalipsinis Romanas"

Peržiūrėtas: 4037
Komentarų: 0 (skaityti / rašyti komentarus)
Įvertinimas: nėra
Vertinti: vertinimas prieinamas tik registruotiems vartotojams
intro  2x

E----------10----10-----------9----9---------------12----12-----------------10------10---------|
B-------7------7-----------------------------------------------------------7--------7---------------|
G---------------------------9-----9--------------9------9-------------------------------------------|
D--0-------------------------------------------------------------------0-----------------------------|
A----------------------0---------------------0-------------------------------------------------------|
E-----------------------------------------------------------------------------------------------------|

Uzhdainis 2x

E------------2------------------2-------------------------------------------2--------------------|
B---------3----3------------3----3----------------3-----------------------------------------------|
G------2---------2-------2----------2---------0-----0----------------2---------------------------|
D--0----------------------------------------2------------2---------2-------------------------------|
A---------------------2------------------2----------------------0----------------------------------|
E----------------------------------------------------------------------------------------------------|

Toliau eina… pavadinkime tai priedainiu, nors shitame gabale priedainio ishvis nera

Priedainis 

E-------------------------------------------------------0-----------2------------------------------|
B-----------7-------------7----------0------0-------0--0-------3----3-------------3----------|
G--------7---7---------8----8-----3------3-------0-----0---2---------2--------1---------------|
D-----7--------7-----7--------------------------------------0------------------2-----------------|
A--5---------------6---------------------------------------------------------2--------------------|
E--------------------------------0-------2-------3------------------------------------------------|

Po pirmo karto eina toks perejimas:

E-------3--------2----------0----------5--|
B-----0-----------------------------5------|
G-------------2---------2-------6---------|
D-------------------------------------------|
A--0------0---------0---------------------|
E-------------------------------------------|

Antra karta sugroja paprastai ir toliau vel eina intro, tik groja jau dvi gitaros ir ritmas truputi kitoks

Outro

E----------10---------9----------7--------5-------3------2-----0---2------|
B------7-----------------------------------------------------------------3------|
G------------------9-----------7--------6-------4-----2------0--------2------|
D---0--------------------------------------------------------------------0------|
A--------------0-----------0--------0-------------------------------------------|

Textas:

Man akiu nagraudina geltono zhibinto angis,
Ash neieshkau namu, nes namu niekada neturejau

"Priedainis" 2X
Tik sedejau, i svetima dangu zhiurejau,
Kol pulsuojanchios zhvaigdzhdes spygliais man ishdure akis

Kol i jas ishsilyde menulio blizgus aliuminis,
Raibuliavo vanduo I skirtingas pasaulio puses

"Priedainis" 2X
Tu laimingas tik tol, kol kazhkas pasilenks prie peties
Atsiduses ishtars, kad likai ish genties paskutinis 

Ir paklaiksi lyg paukshtis I uzhianchia jura lekias
Ash namu neturiu ir stakta man kaktos nepalies

"priedainis"2X
Ash eiliu nerashau, ash tik sunkiai dejuoju eiles
Kai pasibaige shvente ir dievas gesina zhvakes.

Akordai.lt neatsako už akordų turinį ar jų šaltinį, nes akordus mums atsiunčia patys vartotojai.
Nežinote kaip groti vieną ar kitą akordą? Visą akordų sąrašą rasite šiuo adresu: http://chords.lt/gitaros-akordu-sarasas

Komentarai:
komentarų nėra

Jūsų vardas:

Jūsų komentaras:

Įveskite skaičius iš paveiksliuko: