Akordai

Lietuvos atlikėjų akordai (1653) Užsienio atlikėjų akordai (894) Rusijos atlikėjų akordai (220)  



Virgis Stakėnas "Trakų Pilis"

Peržiūrėtas: 10030
Komentarų: 0 (skaityti / rašyti komentarus)
Įvertinimas: 10 / 10 (2 balsų)
Vertinti: vertinimas prieinamas tik registruotiems vartotojams
-----------------------------------

 Am            C      Dm        F
Pelesiais ir kerpe apaugus aukstai
   Am          C       E        E
Traku stai garbinga pilis!
    Am          C      Dm       F
Jos aukstus valdovus uzmigde kapai,
  Am       E       Am          Am
O ji tebestovi dar vis.

     Am      C       Dm           F
Kai vejas pakyla ir drumscias vanduo,
   Am      C          E        E
Ir ezeras verzias platyn,
   Am       C        Dm       F
Banga gena banga, ir boksto akmuo
   Am       E        Am        Am
Paplautas nuvirsta zemyn.
 
Pilis! Tu tiek amziu praleidai garsiai!
Ir tiek mums davei milzinu!
Tu Vytauto didzio galybe matei,
Kad jojo tarp savo pulku!
 
Nutilusios sienos apleistos visu,
Be sargo, ginklu be zmogaus!
Kiek primenat jus man brangiausiu laiku
Ant vieskelio amziu plataus!
 
Kada tik keliu vaziavau pro Trakus,
Man verke is skausmo sirdis;
Gaili asarele beplove skruostus
Ir melynas temde akis! 


Braukti stygas : ( z - zemyn 
                   v - virsun
                   ~ - leisti akordui skambeti kuri laika )

 -z~----z-v-z-v-  keisti akorda po to vel -z~----z-v-z-v- ir
taip toliau,tas pats per ta pati.:)

Siaip as izanga groju rinkdamas stygas,stai tab'ai:

E--------0-----------0-----------1-----------1---------------------
B------1---1-------1---1-------2---2-------1---1-------------------
G----2-------2---0-------0---3-------3---2-------2-----------------
D--2-----------------------0-----------3---------------------------
A--------------3--------------------------------------------------- 
E------------------------------------------------------------------

E--------0-----------0-----------0-----------0---------------------
B------1---1-------1---1-------0---0-------0---0-------------------
G----2-------2---0-------0---1-------1---1-------0-----------------
D--2---------------------------------------------------------------
A--------------3-----------2-----------2---------------------------
E------------------------------------------------------------------

E--------0-----------0-----------1-----------1---------------------
B------1---1-------1---1-------2---2-------1---1-------------------
G----2-------2---0-------0---3-------3---2-------2-----------------
D--2-----------------------0-----------3---------------------------
A--------------3--------------------------------------------------- 
E------------------------------------------------------------------

E--------0-----------0-----------0-----------0---------------------
B------1---1-------1---1-------1---1-------1---1-------------------
G----2-------2---0-------0---2-------2---2-------2-----------------
D--2-----------------------2-----------2---------------------------
A--------------3---------------------------------------------------
E------------------------------------------------------------------

Akordai.lt neatsako už akordų turinį ar jų šaltinį, nes akordus mums atsiunčia patys vartotojai.
Nežinote kaip groti vieną ar kitą akordą? Visą akordų sąrašą rasite šiuo adresu: http://chords.lt/gitaros-akordu-sarasas

Komentarai:
komentarų nėra

Jūsų vardas:

Jūsų komentaras:

Įveskite skaičius iš paveiksliuko: