Akordai

Lietuvos atlikėjų akordai (1653) Užsienio atlikėjų akordai (894) Rusijos atlikėjų akordai (220)  



Virgis Stakėnas "Kelelis tolimas"

Atsiuntė: IceTea (rašyti pranešimą)
Peržiūrėtas: 7346
Komentarų: 1 (skaityti / rašyti komentarus)
Įvertinimas: 5.5 / 10 (4 balsų)
Vertinti: vertinimas prieinamas tik registruotiems vartotojams
/-3--3--2--2--0-0-/-0-0----------/----------0-2-0-------/
/-----------------/-----3-3--1-1-/---0-1-3--------3-1-0-/
/-----------------/--------------/-2--------------------/
/-----------------/--------------/----------------------/
/-----------------/--------------/----------------------/
/-----------------/--------------/----------------------/

/--------------------0-5--3-3-/-0-----7---------0---0-/
/-----0-3--1-1---1-2----------/---7-8----10-8-7---4---/
/-0-2-------------------------/-----------------------/
/-----------------------------/-----------------------/
/-----------------------------/-----------------------/
/-----------------------------/-----------------------/

Akordai.lt neatsako už akordų turinį ar jų šaltinį, nes akordus mums atsiunčia patys vartotojai.
Nežinote kaip groti vieną ar kitą akordą? Visą akordų sąrašą rasite šiuo adresu: http://chords.lt/gitaros-akordu-sarasas

Komentarai:

Nepasiraes, 2013-01-07 21:32:25


Jūsų vardas:

Jūsų komentaras:

Įveskite skaičius iš paveiksliuko: