Akordai

Lietuvos atlikėjų akordai (1653) Užsienio atlikėjų akordai (894) Rusijos atlikėjų akordai (220)  



Virgis Stakėnas "Kelelis tolimas..."

Atsiuntė: lukas425 (rašyti pranešimą)
Peržiūrėtas: 9602
Komentarų: 2 (skaityti / rašyti komentarus)
Įvertinimas: 3.25 / 10 (4 balsų)
Vertinti: vertinimas prieinamas tik registruotiems vartotojams

|-3-3--2-2--0-0--0-0-----------------0--2--0-
|'-------------------3-3--1-1---0--1-1-------|-----------------------------2--------------|'-------------------------------------------|--------------------------------------------|--------------------------------------------


------------------------0-3--2-2--0-2-3--7-5-3-1-0-----0-3--1-1---1-----------------------------0-2----------2----------------------------------------------------------------------------------------------------------------------------------------------------------------

-3-2-0---0----|
-------4-----'|
--------------|
--------------|
-------------'|
--------------|
Ritmas:
 ritmas labai paprastas 
turetu gautis ;)

Akordai.lt neatsako už akordų turinį ar jų šaltinį, nes akordus mums atsiunčia patys vartotojai.
Nežinote kaip groti vieną ar kitą akordą? Visą akordų sąrašą rasite šiuo adresu: http://chords.lt/gitaros-akordu-sarasas

Komentarai:

ingute, 2010-11-06 14:46:46
kas cia per akordai? bent sutvarkytum.

Ignasas, 2010-09-11 20:55:59
cia bile kas,kam tu toki sh... dedi?bent sutvarkytum normaliai:/

Jūsų vardas:

Jūsų komentaras:

Įveskite skaičius iš paveiksliuko: