Akordai

Lietuvos atlikėjų akordai (1653) Užsienio atlikėjų akordai (894) Rusijos atlikėjų akordai (220)  



Grūdas "Kiekvienam savo"

Peržiūrėtas: 7440
Komentarų: 3 (skaityti / rašyti komentarus)
Įvertinimas: 9.92 / 10 (13 balsų)
Vertinti: vertinimas prieinamas tik registruotiems vartotojams
Na pabandziau staigiai atrinkt, gal i tema:)

Intro

-----------------------------------
-----------------------------------
-----------------------------------
--5--7--8--------8--7--5-----------X2
--3--5--6--------6--5--3-----------
--3--5--6--------6--5--3-----------



-----------------------------------
-----------------------------------
-----------------------------------
----------5--7--8------------------
----------3--5--6------------------
----------3--5--6------------------
-Nesistebek, jei zole nezaliuoja laiku

-----------------------------------
-----------------------------------
-----------------------------------
----------5--7--8------------------
----------3--5--6------------------
----------3--5--6------------------
Nesitebek, jei gegute nepazysta vaiku

-----------------------------------
----------------------8-------------
-------------------8----8----8-----
----------------8----------8--------
-------------6---------------------
----------6------------------------
NEsitebek, jei pasaulis  daznai buna juoda



-----------------------------------
-----------------------------------
-----------------------------------
--5--7--8--------8--7--5-----------
--3--5--6--------6--5--3-----------
--3--5--6--------6--5--3-----------
Nesidziauk nepadares nieko gero nei bloga




-----------------------------------
-----------------------------------
-----------------------------------
----------5--7--8------------------
----------3--5--6------------------
----------3--5--6------------------
Kaip lengviau isgyvent po saule


-----------------------------------
-----------------------------------
-----------------------------------
----------5--7--8------------------
----------3--5--6------------------
----------3--5--6------------------
Gali pavog bet gali ir apginti pasauli



-----------------------------------
----------------------8------------
-------------------8----8----8-----
----------------8----------8-------
-------------6---------------------
----------6------------------------
jeigu griuna tikejimo siena


-----------------------------------
-----------------------------------
----------7--7--7-------------7--7-
----------7--7--7-------------7--7-
----------5--5--5-------------5--5-
-----------------------------------
(prigesine su delnu)  (normaliai)
mus kaip alkana zudo is galo po viena

--------------------------------------
--------------------------------------
-----------------------5--x--5-5-x----
-------5--x--5-5-x-----5--x--3-3-x----
-------5--x--5-5 x-----3--x--3-3-x----
-------3--x--3-3-x--------------------
Kiekvienam savo - taip jau yra


--------------------------------------
--------------------------------------
--------------------------------------
-------8--x---10--10--x----5--5--x--5--
-------8--x---10--10--x----5--3--x--3--
-------6--x---8---8---x----3--3--x--3--
kam lemt sliauziot neskraidys niekada
Kiekvienam savo - kalba visi
bet as taip noriu skraidyt

ir t.t.

Akordai.lt neatsako už akordų turinį ar jų šaltinį, nes akordus mums atsiunčia patys vartotojai.
Nežinote kaip groti vieną ar kitą akordą? Visą akordų sąrašą rasite šiuo adresu: http://chords.lt/gitaros-akordu-sarasas

Komentarai:

edvis, 2013-06-18 21:35:15
nu jo daina gerai parasyta... jeigu jau taip tai geriau isvis nedekit. galas tai labiausiai sujuokino ir t.t. mazdaug eik ieskokis toliau teksto :D

autorius, 2012-11-16 15:02:31
byby valgyk tu gitaristas nr1

gitaristas nr1, 2012-11-16 15:00:14
gal galit sutvarkyt, kad daina but o virs eilutes akordai?

Jūsų vardas:

Jūsų komentaras:

Įveskite skaičius iš paveiksliuko: