Akordai

Lietuvos atlikėjų akordai (1653) Užsienio atlikėjų akordai (894) Rusijos atlikėjų akordai (220)  



Kreivas.lt "Metalistas"

Peržiūrėtas: 3585
Komentarų: 0 (skaityti / rašyti komentarus)
Įvertinimas: nėra
Vertinti: vertinimas prieinamas tik registruotiems vartotojams
Daina galite parsisiusti is: http://www.kreivas.lt/dainos.php



Bm7      Em7          A7      F#m7
Pavienis metalistas Žiūri į žvaigždes 
Bm7    Em7     A7              F#7    
Atsispindinčias troleibuso lange,
D              A                   G           Bm7
Kuris nuvažiuos ir su savim nusiveš
D                    A              G             ( Bm          G   F#) x2    skliaustuose čia  užrašiau 
Tą gabalą dangaus gatvele užuolankia tą pragrojimą tarp posmų



Bm7                      2
--I------I-------I---●---I---------                    
--I------I-------I--------I-------X
--I------I-------I---●3--I---------
--I------I-------I---●3--I---------
--I------I-------I---●3--I---------
--I------I-------I--------I-------X
                            VIIpos. 
Em7
--I------I---●3-I------ -I---------
--I------I-------I--------I-------X
--I------I-------I--------I---●1---
--I------I---●4-I--------I---------
--I------I-------I--------I----●1--
--I------I-------I--------I-------X
                                      Vpos.
F#m7 
   I------I-------I---●---I---------                    
--I------I-------I--------I-------X
--I------I-------I---●3--I---------
--I------I-------I---●3--I---------
--I------I-------I---●3--I---------
--I------I-------I--------I-------X
                           II pos.


A7
   I--------I--------I---●1---I---------                    
--I---●3--I--------I---------I--------
--I--------I--------I---●1---I---------
--I--------I---●2--I---------I---------
--I--------I--------I---●1---I---------
--I--------I--------I---●1---I--------
                               Vpos.  

F#7
  I--------I--------I---●1---I---------                    
--I---●3--I--------I---------I--------
--I--------I--------I---●1---I---------
--I--------I---●2--I---------I---------
--I--------I--------I---●1---I---------
--I--------I--------I---●1---I--------
                                IIpos.
Nu kiti akordai turbūt aiškūs 



Pragrojimas po antro posmo



-------------------------------------------------------------------------------------
----------7-----8----7-----5-----5-----5------------5----5----5 ▬ 7--------2---3---2-
----------7----------------7-----7-----7------------6----6--------------------2--
----------7-----9----7-----5-----5------------------5-----5----5 ▬7---------2--
-------------------------------------------------------7------------------------------
-▬ 7-----------------------7-----7------------6----5----------------------2-----


--------------------------------------------------5----5----7---5----5-----2----------
----------7----8-----7-----5-----5-----5-------5----5----5---5----5-----2-------------
----------7-----------------7-----7-----7-------6----6----6--------6-----3--------------0---
----------7----9-----7-----5-----5-------------5-----5----5--------5-----2----------2--▬4--
--------------------------------------------------7-----7-------------7-----4-----1-4------
-▬ 7----------------------7-----7----------6--5-----5--------------------2--2---------


---------2----3----2-----0----0----0----0----3----3----3----3-----2----2----5-----0-
---------3---------------2----2----2----2----0----0----0----0-----3----3---
-2-----2-----------------2----2----2---------0----0----0-----------2----2--
-0-----------------------2----2--------------0----0----------------4----4-
-------------------------0-------------------2----2----------------2-------
--------------------------------------------------3----------------------


--------2----3----2----0----0----0----0-----3----3----3----3---------
--------3---------------2----2----2----------0----0----0----0--------
-2-----2---------------2----2----------------0----0----0-------------
-0----------------------2---------------------0----0-----------------
------------------------0---------------------2----2-----------------
----------------------------------------------3----------------------


----7------7------7---------------------------------------------------------
----------7------7------7---------------------------------------------------
----------7------7----------------------------------------------------------
-----7------------7-----------------5-----------------4------4--------------
--------------------------------------5-----------------4------4------------
------7------------------------------3---x-------------2------2--x----------

Akordai.lt neatsako už akordų turinį ar jų šaltinį, nes akordus mums atsiunčia patys vartotojai.
Nežinote kaip groti vieną ar kitą akordą? Visą akordų sąrašą rasite šiuo adresu: http://chords.lt/gitaros-akordu-sarasas

Komentarai:
komentarų nėra

Jūsų vardas:

Jūsų komentaras:

Įveskite skaičius iš paveiksliuko: