Akordai

Lietuvos atlikėjų akordai (1653) Užsienio atlikėjų akordai (894) Rusijos atlikėjų akordai (220)  



Jieva "Būna"

Peržiūrėtas: 6696
Komentarų: 7 (skaityti / rašyti komentarus)
Įvertinimas: 10 / 10 (3 balsų)
Vertinti: vertinimas prieinamas tik registruotiems vartotojams
Asus           Am        C               C7
E--------------------------|--------------------------|
B-----------0--------1-----|-----------1--------3-----|
G--------2-----2-----------|--------0-----0-----------|
D-----2-----------2-----2--|-----2-----------2-----2--|
A--0-----------------------|--3-----------------------|
E--------------------------|--------------------------|
    G                        D                 D5
E--------------------3-----|-----------2h-3------------|
B-----------3--------------|--------3---------3-----3--|
G--------0-----0--------0--|-----2---------------2-----|
D-----0-----------0------- |--0------------------------|
A--------------------------|---------------------------|
E--3-----------------------|---------------------------|
Posmai:
 Asus                Am      C                 C7
E--------------------------|--------------------------|
B-----------0--------1-----|-----------1--------3-----|
G--------2-----------------|--------0-----------------|
D-----2-----------2-----2--|-----2-----------2-----2--|
A--0-----------------------|--3-----------------------|
E--------------------------|--------------------------|
  G                           D          D5
E--------------------3-----|-----------2h-3------------|
B-----------3--------------|--------3---------3-----3--|
G--------0--------------0--|-----2---------------2-----|
D-----0-----------0------- |--0------------------------|
A--------------------------|---------------------------|
E--3-----------------------|---------------------------|
Prd
Asus 
--0--0--0--0----0--0----|
--0--0--0--1----0--1----|
--2--2--2--2----2--2----|
--2--2--2--2----2--2----|
--0--0--0--0----0--0----|
------------------------|

--0--0--0--0----0--0----|
--1--1--1--3----1--3----|
--0--0--0--0----0--0----|
--2--2--2--2----2--2----|
--3--3--3--3----3--3----|
------------------------|

--3--3--3--3----3--3----|
--3--3--3--3----3--3----|
--0--0--0--0----0--0----|
--0--0--0--0----0--0----|
--2--2--2--2----2--2----|
--3--3--3--3----3--3----|

--2--2--2--3----2--3----|
--3--3--3--3----3--3----|
--2--2--2--2----2--2----|
--0--0--0--0----0--0----|
------------------------|
------------------------|
Asus
Per skausma,
C
Per tirpstanti sniega
G
Per ugni,
D
Per saltas akis
Per liepas,
Per vystancius sodus
Per ziema,
I tavo mintis
Negrisiu...
Asus                 C
Nes buna, kad pauksciai krenta
G                      D
Buna, kad rankos tyli
Buna, kad zmones verkia
Buna, saukiu nebyliai..
Pamirsiu,
Prarasiu tikejima namais
Kuriu nebebus
Sudegsiu, 
Apgausiu kentejima neteisu
Ne mano dangus
Nes buna, kad pauksciai krenta
Buna, kad rankos tyli
Buna, kad zmones verkia
Buna, saukiu nebyliai..
Asus      C     
  Pauksciai krenta
G           D
  Rankos tyli
Asus       C
  Zmones verkia
G             D
  O as, saukiu nebyliai...
Ritmas:
Ritmas parodytas. tikuosi patiks ;]

Akordai.lt neatsako už akordų turinį ar jų šaltinį, nes akordus mums atsiunčia patys vartotojai.
Nežinote kaip groti vieną ar kitą akordą? Visą akordų sąrašą rasite šiuo adresu: http://chords.lt/gitaros-akordu-sarasas

Komentarai:

Ifra, 2013-08-15 06:15:49
The voice of raiyanolitt! Good to hear from you. http://egljbiv.com [url=http://spmrrj.com]spmrrj[/url] [link=http://ircjxx.com]ircjxx[/link]

Nursultan, 2013-08-08 18:38:58
I thought I'd have to read a book for a diecsvory like this! http://idopmgea.com [url=http://aniqymms.com]aniqymms[/url] [link=http://vcpfowmp.com]vcpfowmp[/link]

Sheika, 2013-08-06 01:14:26
I will be putting this danlzizg insight to good use in no time.

*nemoki, 2012-06-03 19:49:43


Ingrida ;p, 2012-06-03 19:46:45
Blet šiknoj ritmas. Nmoki grot tj negrok.

Nepasiraes, 2010-08-03 16:16:08
Tai kur tas ritmas?

Bexa, 2010-07-22 18:05:11
Grazi daina...


Jūsų vardas:

Jūsų komentaras:

Įveskite skaičius iš paveiksliuko: