Akordai

Lietuvos atlikėjų akordai (1653) Užsienio atlikėjų akordai (894) Rusijos atlikėjų akordai (220)  



Alina Orlova "Nesvarbu"

Peržiūrėtas: 7319
Komentarų: 0 (skaityti / rašyti komentarus)
Įvertinimas: nėra
Vertinti: vertinimas prieinamas tik registruotiems vartotojams
c              c            g          g          f(4x)
1-----------------|------------|-----------|----------|---------|
2------------8----|------8-----|------3----|-----3----|----1----|
3------------9--9-|------9--9--|------4--4-|-----4--4-|----2--2-|
4---------10------|----10------|----5------|----5-----|---3-----| taip grojama daina 
5-----------------|------------|-----------|----------|---------| pirma karta
6-----8-----------|-8----------|--3--------|--3-------|--1------|
                                                          4x
pragrojimas:
                                                 F ( 2x)
1----8-------8-----8-|----3-----3------3-|---1------1------1-|
2------8-------8-----|------3-----3------|-----1------1------|
3--------9-------9---|--------4-----4----|-------2------2----|kai sudainuoji pirma karta
4--------------------|-------------------|-------------------|gabala tai pragroji sita 
5--------------------|-------------------|-------------------|ir poto wel isnaujo 
6--8-----------------|--3----------------|--1----------------|
                                               (2x)

P.S.  tiksliai rinkimo neatrinkau nes sukejau bet manau kazkas panasaus 
ir antra karta grojant daina rinkimas  truputy skiriasi  tai jai atrinksit kas tai ymeskit :))




Jei aš šokčiau pro langą
    
Tai tik lapkričio mėnesį,
                  
Kai šaligatvis klotas
             
Nukraujuojančiais lapais.

Į mane pažiūrėti subėgtų
    
Kiemo vaikai.

Aš šypsočiausi jiems, 

 ypsočiausi jiems dar ilgai.
Aš sakyčiau:
 
- Vaikučiai, nebijokite nieko.

Nei mirties, nei mokyklos, nei

blogų pažymių.

Aš sakyčiau:

- Vaikučiai, kad tik jūs žinotumėt,

Kaip visa tai nesvarbu,

Nesvarbu.

Akordai.lt neatsako už akordų turinį ar jų šaltinį, nes akordus mums atsiunčia patys vartotojai.
Nežinote kaip groti vieną ar kitą akordą? Visą akordų sąrašą rasite šiuo adresu: http://chords.lt/gitaros-akordu-sarasas

Komentarai:
komentarų nėra

Jūsų vardas:

Jūsų komentaras:

Įveskite skaičius iš paveiksliuko: