Akordai

Lietuvos atlikėjų akordai (1653) Užsienio atlikėjų akordai (894) Rusijos atlikėjų akordai (220)  



Bjelle ir Peru "Brolužis"

Atsiuntė: IceTea (rašyti pranešimą)
Peržiūrėtas: 4959
Komentarų: 2 (skaityti / rašyti komentarus)
Įvertinimas: 10 / 10 (1 balsų)
Vertinti: vertinimas prieinamas tik registruotiems vartotojams
/-7-7-5---5-----0---/-7-7-5---5-----0---/-2-2---2--0/
/-------8-----8---8-/-------8-----8---8-/-----3-----/
/-------------------/-------------------/-----------/
/-------------------/-------------------/-----------/  
/-------------------/-------------------/-----------/
/-------------------/-------------------/-----------/

/-5-7-5---5-----0---/-7-7-5---5-----0---/-2-2---2--0/
/-------8-----8---8-/-------8-----8---8-/-----3-----/
/-------------------/-------------------/-----------/
/-------------------/-------------------/-----------/
/-------------------/-------------------/-----------/
/-------------------/-------------------/-----------/

/-10-10-8-7-8--7---/-10-10-8-7-8--7---/----------7--/
/----------------8-/---------------8--/-7-7-8-10----/
/------------------/------------------/-------------/
/------------------/------------------/-------------/
/------------------/------------------/-------------/
/------------------/------------------/-------------/

/-10-10-8-7-8--7---/-10-10-8-7-8--7---/-2-2---2--0--/
/----------------8-/---------------8--/-----3-------/
/------------------/------------------/-------------/
/------------------/------------------/-------------/
/------------------/------------------/-------------/
/------------------/------------------/-------------/

Prd:
/-0-0-5--3-5--3-5-7-/-0-0-5--3-5--3-5-7-/-0-0-5--3-5--3-5-3-/-5-0---5/
/-------------------/-------------------/-------------------/-----3--/
/-------------------/-------------------/-------------------/--------/
/-------------------/-------------------/-------------------/--------/
/-------------------/-------------------/-------------------/--------/
/-------------------/-------------------/-------------------/--------/

Akordai.lt neatsako už akordų turinį ar jų šaltinį, nes akordus mums atsiunčia patys vartotojai.
Nežinote kaip groti vieną ar kitą akordą? Visą akordų sąrašą rasite šiuo adresu: http://chords.lt/gitaros-akordu-sarasas

Komentarai:

Ieva, 2012-02-16 16:11:06
Manau, kad priedaini padaryta nedidele klaida paskutiniam akorde. Turbut turetu but taip:
Prd:
/-0-0-5--3-5--3-5-7-/-0-0-5--3-5--3-5-7-/-0-0-5--3-5--3-5-3-/-5-0----/
/-------------------/-------------------/-------------------/-----3-5/
/-------------------/-------------------/-------------------/--------/
/-------------------/-------------------/-------------------/--------/
/-------------------/-------------------/-------------------/--------/
/-------------------/-------------------/-------------------/--------/


vaidas, 2011-07-04 22:21:08
gal kas galit imesti tikraja tabulatura bent jau intro???


Jūsų vardas:

Jūsų komentaras:

Įveskite skaičius iš paveiksliuko: