Akordai

Lietuvos atlikėjų akordai (1653) Užsienio atlikėjų akordai (894) Rusijos atlikėjų akordai (220)  



Emigrants "Laiškas jaunimui"

Atsiuntė: wiliuzas (rašyti pranešimą)
Peržiūrėtas: 2663
Komentarų: 0 (skaityti / rašyti komentarus)
Įvertinimas: 10 / 10 (1 balsų)
Vertinti: vertinimas prieinamas tik registruotiems vartotojams
C	                    G
--------0----------0------|---------1----------1-----|
--------1----------1------|---------0----------0-----|
--------0----------0--0---|---------0----------0--0--|
----------------2---------|--------------------------|
-3------------------------|----------------2---------|
--------------------------|-3------------------------|


    Am	                	F
-----------0--------0------|---------1---------1-----|
-----------1--------1------|---------1---------1-----|
-----------2--------2--2---|---------2---------2--2--|
-----------------2---------|-------------------------|
-0-------------------------|-----------------3-------|
---------------------------|-1-----------------------|

Žodžiai video
Video:

Akordai.lt neatsako už akordų turinį ar jų šaltinį, nes akordus mums atsiunčia patys vartotojai.
Nežinote kaip groti vieną ar kitą akordą? Visą akordų sąrašą rasite šiuo adresu: http://chords.lt/gitaros-akordu-sarasas

Komentarai:
komentarų nėra

Jūsų vardas:

Jūsų komentaras:

Įveskite skaičius iš paveiksliuko: