Akordai

Lietuvos atlikėjų akordai (1653) Užsienio atlikėjų akordai (894) Rusijos atlikėjų akordai (220)  



Andrius Mamontovas "Palangos juroj"

Peržiūrėtas: 10244
Komentarų: 0 (skaityti / rašyti komentarus)
Įvertinimas: 10 / 10 (1 balsų)
Vertinti: vertinimas prieinamas tik registruotiems vartotojams
PALANGOS JUROJ
Andrius Mamontovas
Naudojami akordai:
Am 002210
E  022100
G  355433 arba 320033 
C  032010 arba 335553 
A  002220
Dm 000231
B7 021202
E-|--------------------------------------------------| 
B-|-----------1---1----0------0----1---1----1-----1--| 
G-|-----------2---2----1------1----2---2----2-----2--| 
D-|-------------2--------------------2---------2-----| 
A-|---------0----------------2----0-------0----------| 
E-|------------------0-------------------------------| 
Palangos juroj  nuskendo mano meile      Ir šaltos
E-|----------------------------| 
B-|--1---1----0---0---1---1-1--| 
G-|--2---2----1---1---2---2-2--| 
D-|----2------------------2-2--| 
A-|0------------2---0---0-0-0--| 
E-|-------0--------------------| 
bangos jos neatiduos 
E-|----------------------------------------------------------| 
B-|-----------1---1---0-----0-----1---1---1-----------3--3---| 
G-|-----------2---2---1-----1-----2---2---2-----------4--4---| 
D-|-------------2-------------------2-------0---2-3--5-------| 
A-|---------0------------2------0---------0-------------5----| 
E-|-----------------0----------------------------------------| 
Svaiginantis man vejo balsas girdis      Bet mano sie-los
E-|-----------------------| 
B-|----3-----3-1-----1-0--| 
G-|----4-----4-2-----2-1--| 
D-|5-----------------0-2--| 
A-|------5-----3-----3-2--| 
E-|--------------------0--| 
Jis negal paguost
E-|-------------------------------------------------------| 
B-|--2---2--2-------2-----3--3---3---3----0-0----0----0---| 
G-|--2---2--2-------2-----2--2---2---2----2-2----2----2---| 
D-|----2-------2--------0------0-----------1--------1-----| 
A-|0------0----------------0-------0-----2----2-----------| 
E-|-------------------------------------------------------| 
Nors širdis mane dar šaukia           Mano siela kažko
E-|-------------------------------------------------------------------| 
B-|--0-0-0---0-0---------------1---1---0-------0---1---1---1-----1---| 
G-|--1-1-1---1-1---------------2---2---1-------1---2---2---2-----2---| 
D-|--2-2-2---2-2-----------------2-------------------2--------2------| 
A-|--2-2-2---2-2-------------0----------------2---0------0-----------| 
E-|0-0-0-0---0-0----0-2--4-----------0-------------------------------| 
laukia           Palangos juroj nuskendo mano meile     Ir šaltos 
E-|---------------------------| 
B-|--1---1----0---0------0-1--| 
G-|--2---2----1---1------1-2--| 
D-|----2-----------------2-2--| 
A-|0------------2---0----2-0--| 
E-|-------0--------------0----| 
bangos jos neatiduos
SOLO
E-|---------------8-7-7h8p7-5---------------------------------------------- 8-7-7h8p7-5------| 
B-|-5-7-9-9/10~---------------5~------------------------------5-7-9-9/10~---------------5~---| 
G-|-------------9----------------5-5-7-7/9~-10-9-5/7-5-7-7/9~-------------9------------------| 
D-|------------------------------------------------------------------------------------------| 
A-|------------------------------------------------------------------------------------------| 
E-|------------------------------------------------------------------------------------------| 
 ia dali atlieka violoncele              
E-|--------------------------------------------------------------------------------|
B-|-5-5-6-6/8~-10-8h10p8-6-5-------------------------------------------------------|
G-|--------------------------7-5---7~-------------------7-5~-----------------9-7~--|
D-|------------------------------8--------5-7-7/9-5-7-9------7-9-9/11-7-9-11-------|
A-|--------------------------------------------------------------------------------|
E-|--------------------------------------------------------------------------------| 
O dabar vel gitara
E-|------------------8-7-7h8p7-5------| 
B-|----5-7-9-9/10~---------------5~---| 
G-|----------------9------------------| 
D-|-----------------------------------| 
A-|-----------------------------------| 
E-|-----------------------------------| 
E-|----------------------------| 
B-|----------------------------| 
G-|-5-5-7-7/9~-10-9-5/7-5-4-2--| 
D-|----------------------------| 
A-|----------------------------| 
E-|----------------------------| 
Kai viena gitara groja SOLO partija, kita kartoja visa versija su tarpais pasitaikancia 
šiek tiek kitokia variacija.
Del to nebijokite improvizuoti patys, o jei norite tikslumo, 
tai pasiklausykite dainos ir iš karto išgirsite 
kurios vietos sugrojamos kiek kitaip.
Toliau dar karta kartojami tie patys dainos žodžiai. 
Grojimo technika nesikeicia, tik kiekvienos eilutes gale
sugrojami tie akordai, kuriais ji užbaigiama:
Am    E             Am                     E        Am
Palangos juroj nuskendo mano meile ir šaltos bangos jos neatiduos.
E           Am               G                  C     C E
Svaiginantis man vejo balsas girdis, bet mano sielos jis negal paguost.
A                    Dm      B7               E
Nors širdis mane dar šaukia, mano siela kažko laukia.
A     E             Am                     E        Am   E Am
Palangos juroj nuskendo mano meile ir šaltos bangos jos neatiduos.
 tai jum ir visa daina:)

Akordai.lt neatsako už akordų turinį ar jų šaltinį, nes akordus mums atsiunčia patys vartotojai.
Nežinote kaip groti vieną ar kitą akordą? Visą akordų sąrašą rasite šiuo adresu: http://chords.lt/gitaros-akordu-sarasas

Komentarai:
komentarų nėra

Jūsų vardas:

Jūsų komentaras:

Įveskite skaičius iš paveiksliuko: