Akordai

Lietuvos atlikėjų akordai (1653) Užsienio atlikėjų akordai (894) Rusijos atlikėjų akordai (220)  



Andrius Mamontovas "Saldi.juoda.naktis (LIVE)"

Peržiūrėtas: 4747
Komentarų: 0 (skaityti / rašyti komentarus)
Įvertinimas: 5.5 / 10 (2 balsų)
Vertinti: vertinimas prieinamas tik registruotiems vartotojams
INTRO
|-----------0-----------|
|--------14---14--------|
|------13-------13------|
|----11-----------11----|
|--12---------------12--|
|---------------------0-|

I posmas grojama kaip ir INTRO

Priedainis:
|----------0-------|---------0-------|----------0-------|---------0-------|
|--------5---5-----|-------5---5-----|--------0---0-----|-------0---0-----|
|------4-------4---|-----4-------4---|------4-------4---|-----4-------4---|
|----2-----------2-|---2-----------2-|----2-----------2-|---2-----------2-|
|--4---------------|-0---------------|------------------|-----------------|
|------------------|-----------------|-0----------------|-0---------------|

Žodziai:

Prisimini, kaip minioje pasmerkti mes stovejom?
Prisimeni, kaip negalejom nebuti kartu?
Prisimini, kaip su visais pasroviui nenorejom?
Aš vis dar akimirkoj toj stebuklingoj esu


  Tik saldi, juoda, naktis
  Pasibeldžia į duris
  Iš giliausiu vandenų
  Kyla tūkstančiai laivų

Palaimintas tas kuris eina per lūštantį ledą
Kaip kunigas šviečiantis visas po meilės nakties
Ar tu vis dar nori atrast tai, ko niekas neatrado?
Ar mes susitiksime vėl anapus mirties?

Mes vejamės nuolat nuo mūsų tolstantį Dieva
Ir kartais atrodo, kad niekas nebeturi vilties
Bet jei paziuretum aplinkuj - vien žydinti pieva
Rytojaus nera, kaip nebėra praeities

Akordai.lt neatsako už akordų turinį ar jų šaltinį, nes akordus mums atsiunčia patys vartotojai.
Nežinote kaip groti vieną ar kitą akordą? Visą akordų sąrašą rasite šiuo adresu: http://chords.lt/gitaros-akordu-sarasas

Komentarai:
komentarų nėra

Jūsų vardas:

Jūsų komentaras:

Įveskite skaičius iš paveiksliuko: