Akordai

Lietuvos atlikėjų akordai (1653) Užsienio atlikėjų akordai (894) Rusijos atlikėjų akordai (220)  



Metallica "Welcome Home (Sanitarium)"

Atsiuntė: dei8is (rašyti pranešimą)
Peržiūrėtas: 2044
Komentarų: 0 (skaityti / rašyti komentarus)
Įvertinimas: 10 / 10 (1 balsų)
Vertinti: vertinimas prieinamas tik registruotiems vartotojams
-------<12>---------3---3-5-3-2--|-------<12>---------2---2-----3-|
-----------<12>---------0--------|-----------<12>---------0-------|
---------------------------------|--------------------------------|
---------------------------------|--------------------------------|
---------------------------------|--------------------------------|
0--------------------------------|0-------------------------------|


0------<12>---------------------|-------<12>---------------------|
-----------<12>-----------------|-----------<12>-----------------|
--------------------------------|--------------------------------|
--------------------------------|--------------------------------|
--------------------------------|--------------------------------|
0-------------------------------|0-------------------------------|

-------<12>---------------------|-------<12>---------------------|
-----------<12>-----------------|-----------<12>-----------------|
--------------------------------|---------------<12>-------------|
--------------------------------|--------------------------------|
--------------------------------|--------------------------------|
0-------------------------------|0-------------------------------|

----------------|------------------|------------|  
----------------|------------------|------------|   
------0-------0-|------0-----------|------------|   
----4-------5---|----7-------0-----|--0-----0---|   
--2-------3-----|--5-------4-------|2-----------|   
0-------0-------|0-------5-----5-3-|-----3-5----| 12x



----------------|----------------|--------|
----------------|----------------|--------|
----------------|----------------|--------| 2x
----------------|----------------|--------|
----2-2-----3-3-|----5-5---------|--------|
0-0-----0-0-----|0-0-----5-5-5-3-|3-3-5-5-|

Priedainis.


--------------------------------|--------------------------------|
--------------------------------|--------------------------------|
------------------5-4------5-4--|--------------------------------|
---------5-4------5-4------5-4--|-----0-2-0----------------------|
---------5-4------3-2------3-2--|-----------3-2-0----------------|
-0--0-0--3-2--0-0------0-0------|-------------------3-2-3--------|

--------------------------------|--------------------------------|
--------------------------------|--------------------------------|
------------------5-4------5-4--|--------------------------------|
---------5-4------5-4------5-4--|--------------------------------|
---------5-4------3-2------3-2--|--2-2-2-2-2-2-3-2----3--3-------|
-0--0-0--3-2--0-0------0-0------|------------------3--2--1-------|

--------------------------------|--------------------------------|
--------------------------------|--------------------------------|
------------------5-4------5-4--|--------------------------------|
---------5-4------5-4------5-4--|-----0-2-0----------------------|
---------5-4------3-2------3-2--|-----------3-2-0----------------|
-0--0-0--3-2--0-0------0-0------|-------------------3-2-3--------|

--------------------------------|--------------------------------|
--------------------------------|--------------------------------|
------------------5-4------5-4--|-----4--------------------------|
---------5-4------5-4------5-4--|-----4--------------------------|
---------5-4------3-2------3-2--|-----2--------------------------|
-0--0-0--3-2--0-0------0-0------|--------------------------------|

----------------------------------------------------------------|
-----------------------------5-7-10-----------------------------|
------------------------7-7-------------------------------------|
-----------------7-7-9------------------------------------------|
--------5-5-7-9-------------------------------------------------|
----5-7---------------------------------------------------------|

----------------|------------------|------------|  
----------------|------------------|------------|   
------0-------0-|------0-----------|------------|   
----4-------5---|----7-------0-----|--0-----0---|   
--2-------3-----|--5-------4-------|2-----------|   
0-------0-------|0-------5-----5-3-|-----3-5----| 8x

----------------|----------------|--------|
----------------|----------------|--------|
----------------|----------------|--------| 2x
----------------|----------------|--------|
----2-2-----3-3-|----5-5---------|--------|
0-0-----0-0-----|0-0-----5-5-5-3-|3-3-5-5-|

Priedainis.

--------------------------------|--------------------------------|
--------------------------------|--------------------------------|
------------------5-4------5-4--|--------------------------------|
---------5-4------5-4------5-4--|-----0-2-0----------------------|
---------5-4------3-2------3-2--|-----------3-2-0----------------|
-0--0-0--3-2--0-0------0-0------|-------------------3-2-3--------|

--------------------------------|--------------------------------|
--------------------------------|--------------------------------|
------------------5-4------5-4--|--------------------------------|
---------5-4------5-4------5-4--|--------------------------------|
---------5-4------3-2------3-2--|--2-2-2-2-2-2-3-2----3--3-------|
-0--0-0--3-2--0-0------0-0------|------------------3--2--1-------|

--------------------------------|--------------------------------|
--------------------------------|--------------------------------|
------------------5-4------5-4--|--------------------------------|
---------5-4------5-4------5-4--|-----0-2-0----------------------|
---------5-4------3-2------3-2--|-----------3-2-0----------------|
-0--0-0--3-2--0-0------0-0------|-------------------3-2-3--------|

--------------------------------|--------|-----------------------|
--------------------------------|--------|-----------------------|
------------------5-4------5-4--|-----4--|-----------------------|
---------5-4------5-4------5-4--|-----4--|--0-2-0----------------|
---------5-4------3-2------3-2--|-----2--|--------3-2-0----------|
-0--0-0--3-2--0-0------0-0------|--------|---------------3-2-3---|


--------------------------------|--------|-------------------------|
--------------------------------|--------|-------------------------|
------------------5-4------5-4--|-----4--|-------------------------|
---------5-4------5-4------5-4--|-----4--|--0-2-0----------------2-|
---------5-4------3-2------3-2--|-----2--|--------3-2-0----------2-|
-0--0-0--3-2--0-0------0-0------|--------|---------------3-2-3---0-|

--------------------------------|
--------------------------------|
--------------------------------|
--------------------------------|
--------------------------------|
-0-0-0-0-0-0-0-0----------------| 32x
Video:

Akordai.lt neatsako už akordų turinį ar jų šaltinį, nes akordus mums atsiunčia patys vartotojai.
Nežinote kaip groti vieną ar kitą akordą? Visą akordų sąrašą rasite šiuo adresu: http://chords.lt/gitaros-akordu-sarasas

Komentarai:
komentarų nėra

Jūsų vardas:

Jūsų komentaras:

Įveskite skaičius iš paveiksliuko: