Akordai

Lietuvos atlikėjų akordai (1653) Užsienio atlikėjų akordai (894) Rusijos atlikėjų akordai (220)  



Metallica "Nothing else matters (intro)"

Atsiuntė: Timerider (rašyti pranešimą)
Peržiūrėtas: 28795
Komentarų: 5 (skaityti / rašyti komentarus)
Įvertinimas: 6.35 / 10 (40 balsų)
Vertinti: vertinimas prieinamas tik registruotiems vartotojams
  /   = braukti į viršų
  \   = braukti į apačią
  p   = atitraukti

|-----------0--------|-----------0--------|-----------0--------|
|--------0-----0-----|--------0-----0-----|--------0-----0-----|
|-----0-----------0--|-----0-----------0--|-----0-----------0--|
|--------------------|--------------------|--------------------|
|--------------------|--------------------|--------------------|
|--0-----------------|--0-----------------|--0-----------------|

|-----------0-----7--|--7--------7p0-------|--------7--8--7-87\5-|--7--5/2------|
|--------0-----0-----|-----0-----0---0-----|--0-----0--0---------|--0--------5--|
|-----0--------------|--------0---------0--|-----0---------------|--------------|
|--------------------|---------------------|---------------------|--------------|
|--------------------|---------------------|---------------------|--------------|
|--0-----------------|--0------------------|--0------------------|--------------|

|-----------2p0-------|-----------0--0--0--|--0----------3p0-----0--|
|--5-----5------5-----|--------5-----5--5--|--5------5-------5---5--|
|-----5------------5--|-----5--------5--5--|--5----5---5-------5-5--|
|---------------------|--------------------|------------------------|
|--0------------------|--0-----------0--2--|--3--3---------------3--|
|---------------------|--------------------|------------------------|

                                  
|--0----------0-5p0---------|-------------12--------|-----------0--------|
|--7------7---------7p0-0-5-|-----12--12------0-----|--------0-----0-----|
|--7----7---7---------------|-----12-------------0--|-----0-----------0--|
|---------------------------|-----------------------|--------------------|
|--5--5---------------------|-----------------------|--------------------|
|---------------------------|--0--------------------|--0-----------------|

Akordai.lt neatsako už akordų turinį ar jų šaltinį, nes akordus mums atsiunčia patys vartotojai.
Nežinote kaip groti vieną ar kitą akordą? Visą akordų sąrašą rasite šiuo adresu: http://chords.lt/gitaros-akordu-sarasas

Komentarai:

Laura Bella Bellute, 2012-12-17 12:00:35
labai grazi daina. :)
verry biutifol song. :)


rolasss, 2011-10-09 19:26:35


ygddagkkr, 2011-08-03 17:13:27
jbbqk2 , [url=http://aumntnuqvgev.com/]aumntnuqvgev[/url], [link=http://voxfdymxqvep.com/]voxfdymxqvep[/link], http://vdoxxpsvfnvd.com/

tdilqhe, 2011-08-02 19:09:48
SRrKp9 , [url=http://mnmevlvpmqch.com/]mnmevlvpmqch[/url], [link=http://dbsrfrlnelwr.com/]dbsrfrlnelwr[/link], http://nyzyekmobife.com/

Dolley, 2011-08-01 11:09:20
Filnaly! This is just what I was looking for.

Jūsų vardas:

Jūsų komentaras:

Įveskite skaičius iš paveiksliuko: