Akordai

Lietuvos atlikėjų akordai (1653) Užsienio atlikėjų akordai (894) Rusijos atlikėjų akordai (220)  



Slipknot "Before I forget"

Atsiuntė: slpmaster1 (rašyti pranešimą)
Peržiūrėtas: 2255
Komentarų: 0 (skaityti / rašyti komentarus)
Įvertinimas: 10 / 10 (1 balsų)
Vertinti: vertinimas prieinamas tik registruotiems vartotojams
visas stygas numazinkit taigi nuo 6 stygos
6 styga B
5 styga F#
4 styga B
3 styga E
2 styga G#
1styga C#

ir patarciau su metalo fuzu grot nes be jo nelbai jausis tokia jega :DD
(intro)
|-----------------------------------|       |----------------------|
|-----------------------------------|       |----------------------|
|-----------------------------------| X6 |-------------------------|
|-0h2--0h2h3p2--0h2--2h3p2-----|       |-5-5-0-0-5-5-0-0-----------|
|-0h2--0h2h3p2--0h2--2h3p2-----|       |-5-5-0-0-5-5-0-0-----------|
|-0h2--0h2h3p2--0h2--2h3p2-----|       |-5-5-0-0-5-5-0-0-----------|

GO!!!

(Verse)
|-----------------------------------|       |----------------------|
|-----------------------------------|       |----------------------|
|-----------------------------------| X6 |-------------------------|
|-0h2--0h2h3p2--0h2--2h3p2-----|       |-5-5-0-0-------------------|
|-0h2--0h2h3p2--0h2--2h3p2-----|       |-5-5-0-0-------------------|
|-0h2--0h2h3p2--0h2--2h3p2-----|       |-5-5-0-0-------------------|

|--------------------------------------------------------------|
|--------------------------------------------------------------|
|--------------------------------------------------------------|
|--2-2-2-2h3p2--2-2-2h3p2---5-5-0-0----------------------------|
|--2-2-2-2h3p2--2-2-2h3p2---5-5-0-0----------------------------|
|--2-2-2-2h3p2--2-2-2h3p2---5-5-0-0----------------------------|

(Pre Chorus)
|--------------------|
|--------------------|
|--------------------|
|--2-2-2-------------|
|--2-2-2-------------|
|--2-2-2-------------|
    * * *
(pre chorus Guitar 2)
|-----15/16~~-----9/10~~--16/16~~-------|
|---------------------------------------|
|---------------------------------------|
|---------------------------------------|
|---------------------------------------|
|---------------------------------------|
LISTEN!!
(Chorus)
|---------------------------       |------------------------------|
|---------------------------       |------------------------------|
|--------------------------- X3 |---------------------------------|
|-2-0h2-5-0h2-5-0-8p7---       |-7-7-7h9p7-10-5-5-7/8-------------|
|-2-0h2-5-0h2-5-0-8p7---       |-7-7-7h8p7-10-5-5-7/8-------------|
|-2-0h2-5-0h2-5-0-8p7---       |-7-7-7h8p7-10-5-5-7/8-------------|

|-----------------------------------------------------------------------------|
|-----------------------------------------------------------------------------|
|---------------------------7-5-4-----5-4-2-0---------------------------------|
|---5555555-4-5555555----------7--------------4-5555555-4-5555555-------------|
|-----------------------------------------------------------------------------|
|-----------------------------------------------------------------------------|
(Guitar 1)
My End, It Justifies My means...
|-----------------------------------------------------------------------|
|-----------------------------------------------------------------------|
|-----------------------------------------------------------------------|
|-----------------------------------------------------------------------|
|-2222222-5555555-00000000----------------------------------------------|
|-2222222-5555555-00000000----------------------------------------------|

(Guitar 2)
|----------------------|
|----------------------|
|----------------------|
|----------------------|
|-0-2-0-2-3p2-0h2------|
|----------------------|

There Ya go, Its all correct, even the backround riffs in the interlude. Enjoy Maggots!

Intro X3
Verse X4
Pre Chorus X1
Chorus X2
Verse X3
Pre Chorus X1
Chorus X2
Interlude
Chorus X4
Ritmas:
uzsidekit irasa ir mokinkites 

Akordai.lt neatsako už akordų turinį ar jų šaltinį, nes akordus mums atsiunčia patys vartotojai.
Nežinote kaip groti vieną ar kitą akordą? Visą akordų sąrašą rasite šiuo adresu: http://chords.lt/gitaros-akordu-sarasas

Komentarai:
komentarų nėra

Jūsų vardas:

Jūsų komentaras:

Įveskite skaičius iš paveiksliuko: