Akordai

Lietuvos atlikėjų akordai (1653) Užsienio atlikėjų akordai (894) Rusijos atlikėjų akordai (220)  



The Rasmus "In The Shadows"

Atsiuntė: dei8is (rašyti pranešimą)
Peržiūrėtas: 2233
Komentarų: 0 (skaityti / rašyti komentarus)
Įvertinimas: 10 / 10 (2 balsų)
Vertinti: vertinimas prieinamas tik registruotiems vartotojams
e--------------------------------------------------------------------------
b--------------------------------------------------------------------------
g--------------------------------------------------------------------------
d--------------------------------------------------------------------------
a-5-5-5-7-5-4-0----------------0-2--4--5-5-5-4-0---------------------------
E-----------------2-2-2-0-0-2----------------------2-2-4-4-5---------------

e-----------------------|
b-----------------------|
g-----------------------|
d-----------------------|  (8x)
a-5-5-5--6-6-6----------|
E-----------------------|

e-----------------------|
b-----------------------|
g-----------------------|
d-----------------------|
a-4--3--2---------------|
e-2--1--0---------------|

Pried.
D
I've been watching 
F#
I've been waiting
B              F#   
In the shadows all my time 
D
I've been searching 
F#
I've been living 
B              F#
For tomorrows all my life

e--------------------------------------------------------------------------
b--------------------------------------------------------------------------
g--------------------------------------------------------------------------
d--------------------------------------------------------------------------
a-5-5-5-7-5-4-0----------------0-2--4--5-5-5-4-0---------------------------
E-----------------2-2-2-0-0-2----------------------2-2-4-4-5---------------



Akordai.lt neatsako už akordų turinį ar jų šaltinį, nes akordus mums atsiunčia patys vartotojai.
Nežinote kaip groti vieną ar kitą akordą? Visą akordų sąrašą rasite šiuo adresu: http://chords.lt/gitaros-akordu-sarasas

Komentarai:
komentarų nėra

Jūsų vardas:

Jūsų komentaras:

Įveskite skaičius iš paveiksliuko: