Akordai

Lietuvos atlikėjų akordai (1653) Užsienio atlikėjų akordai (894) Rusijos atlikėjų akordai (220)  



Los Lobos "La Bamba"

Atsiuntė: eseras (rašyti pranešimą)
Peržiūrėtas: 2879
Komentarų: 0 (skaityti / rašyti komentarus)
Įvertinimas: 10 / 10 (2 balsų)
Vertinti: vertinimas prieinamas tik registruotiems vartotojams
            
---------------------------------------
---------------------------------------
-------------0---2--0------------------
------\----2---3-----------0-3-3-2-0---
---0-2\--3---------------2-------------
-3----\----------------3---------------

pirmos trys natos tik intro

---------------------------------------
---------------------------------------
--------------------------------------
-------------0---2--0--------0-3-3-2-0-
-----------2---3-----------2-----------
---------3--------------3--------------


  akordai tokie:C  F  G  F

Akordai.lt neatsako už akordų turinį ar jų šaltinį, nes akordus mums atsiunčia patys vartotojai.
Nežinote kaip groti vieną ar kitą akordą? Visą akordų sąrašą rasite šiuo adresu: http://chords.lt/gitaros-akordu-sarasas

Komentarai:
komentarų nėra

Jūsų vardas:

Jūsų komentaras:

Įveskite skaičius iš paveiksliuko: