Akordai

Lietuvos atlikėjų akordai (1653) Užsienio atlikėjų akordai (894) Rusijos atlikėjų akordai (220)  



Marilyn Manson "Sweet Dreams (tabs)"

Atsiuntė: Romantikas (rašyti pranešimą)
Peržiūrėtas: 4816
Komentarų: 9 (skaityti / rašyti komentarus)
Įvertinimas: 10 / 10 (1 balsų)
Vertinti: vertinimas prieinamas tik registruotiems vartotojams
Marilyn Manson - Sweet Dreams
A.J. supaprastinta versija

E||--------------------------|--------------------------|
B||--------------------------|--------------------------|
G||--------0-----1-----1-----|--------------------------|
D||--------------------------|--------------------------|
A||--3--3-----3-----3-----3--|--------1/-3--------0/-1--|
E||--------------------------|--4--4--------3--3--------| 

E||-------|
B||-------|
G||-------|   
D||--5-5--|
A||--3-3--|
E||-------| x4  

E||--------------------||
B||--------------------||
G||--------------------||
D||--------------------||
A||--6-6-6-6--5-5-5-5--||
E||--4-4-4-4--3-3-3-3--||

Ir vel viska is naujo galima kartoti, vertinkit, komentuokit :)
Video:

Akordai.lt neatsako už akordų turinį ar jų šaltinį, nes akordus mums atsiunčia patys vartotojai.
Nežinote kaip groti vieną ar kitą akordą? Visą akordų sąrašą rasite šiuo adresu: http://chords.lt/gitaros-akordu-sarasas

Komentarai:

hm, 2011-11-16 15:53:54
o tai wtF? kur tas 0 ladas??

kristinukas, 2011-01-05 18:56:40
Juk žmogus aiškiai parašė, TABAI. Ko nematot?

SWIFTAS, 2010-12-10 18:58:11
Kaip groti akordais kai cia arpedis?? :D logiskai mastyk


Pradedantysis , 2010-11-18 17:39:55
E virsutine tai ploniausia styga,o E apatine tai storoji,taio tos raides visos stygos,skaiciai tai nurodo kad reike uzspausti ta styga tam tikram langelyja, pvz 0 tai laisva,tai taip ir grojasi :)

Slapukė ;), 2010-08-15 16:59:07
O man šita pradžia labiau patinka :) :
E||--------------------------|--------------------------|
B||--------------------------|--------------------------|
G||--------------------------|--------------------------|
D||--------5-----6-----5-----|--------------------------|
A||--3--3-----3-----3-----3--|--------6/-8--------5/-6--|
E||--------------------------|--4--4--------3--3--------|

Tiem, kurie nesupranta kaip groti : Viskas labai paprasta. Stygos surašytos taip, kaip eina iš tiesų. Pirma eilutė - pirma styga, antra eilutė antra styga ir t. t. :) Skaičiai rodo, ant kurio lado reikia spausti pirštą ;) Taigi iš pradžių reik spaust penktos stygos trečią ladą ;) gal suprasit, sėkmės :)


Tapati, 2010-08-03 11:27:44
E,zmones gal paprasciau galetumet!

Besimokanti, 2010-07-17 10:54:01
Jo, gal butu galima tai parasyti akordu raidemis, taip zymiai lengviau ir suprantamiau!
Aciu.


sigitas1998, 2010-07-16 20:50:36
Ši versija man nelabai patinka. Geriau paprasta xD

Pradedancioji, 2010-07-09 14:00:37
o gal galite pavaizduoti akordus paveikslelyje, pvz: koks akordas (raide) ir kaip jis grojamas, buciau labai dekinga, nes dbr nelabai suprantu kaip cia groti :)

Jūsų vardas:

Jūsų komentaras:

Įveskite skaičius iš paveiksliuko: