Akordai

Lietuvos atlikėjų akordai (1653) Užsienio atlikėjų akordai (894) Rusijos atlikėjų akordai (220)  



AC/DC "Hells Bells"

Atsiuntė: dei8is (rašyti pranešimą)
Peržiūrėtas: 3132
Komentarų: 1 (skaityti / rašyti komentarus)
Įvertinimas: nėra
Vertinti: vertinimas prieinamas tik registruotiems vartotojams
|-------------------|-------------------|------------------|--------------------|
|-------------------|-------------------|------------------|--------------------|
|-----9----7-----5--|------7------------|--9----7-------5--|-------7------------|
|-------7----7------|-5----7---7--------|----7-----7-------|--5----7----5-5-----|
|--0-----------0----|---0---------0--0--|------------0-----|-----0------3-2--0--|
|-------------------|-------------------|------------------|--------------------|

|-----------------|-------------------|-----------------|
|-----------------|-------------------|-----------------|
|---9---7---9-----|-----7---5----7----|-----------------|
|---7---7---7-----|-----7---5----7----|------5--5-------|
|-----------------|-------------------|--0---3--2-------|
|-----------------|-------------------|-----------------|

|-----------------|-------------------|-----------------|
|-----------------|-------------------|-----------------|
|---9---7---9-----|-----7---5----7----|-----------------|
|---7---7---7-----|-----7---5----7----|------5--5-------|
|-----------------|-------------------|--0---3--2-------|
|-----------------|-------------------|-----------------|

Pried.

|-------------------|-------------------|------------------|--------------------|
|-------------------|-------------------|------------------|--------------------|
|-----9----7-----5--|------7------------|--9----7-------5--|-------7------------|
|-------7----7------|-5----7---7--------|----7-----7-------|--5----7----5-5-----|
|--0-----------0----|---0---------0--0--|------------0-----|-----0------3-2--0--|
|-------------------|-------------------|------------------|--------------------|


Video:

Akordai.lt neatsako už akordų turinį ar jų šaltinį, nes akordus mums atsiunčia patys vartotojai.
Nežinote kaip groti vieną ar kitą akordą? Visą akordų sąrašą rasite šiuo adresu: http://chords.lt/gitaros-akordu-sarasas

Komentarai:

Rock music BOSS, 2012-09-18 20:19:44
neblogai :)

Jūsų vardas:

Jūsų komentaras:

Įveskite skaičius iš paveiksliuko: