Akordai

Lietuvos atlikėjų akordai (1653) Užsienio atlikėjų akordai (894) Rusijos atlikėjų akordai (220)  



Megadeth "A tout le monde"

Atsiuntė: dei8is (rašyti pranešimą)
Peržiūrėtas: 1561
Komentarų: 0 (skaityti / rašyti komentarus)
Įvertinimas: nėra
Vertinti: vertinimas prieinamas tik registruotiems vartotojams
|----------------|----------------|----------------|----------------||
|----------------|----------------|----------------|----------------||
|-----2-----2----|----2-----2-----|----2-----2-----|----2--------2--||
|----------------|----------------|--4-----4-------|--0--------2----||
|---4-----4----4-|--4-----4-----4-|2-----2-----2---|---------0------||
|2-----2-----2---|0-----0-----0---|--------------2/|3------3-----3--||

|----------------|----------------|----------------|----------------|
|----------------|----------------|----------------|----------------|
|------------2---|----------------|----------------|------------2---|
|4---2--4----2---|-2--4----2-4----|-4--------------|4---2--4----2---|
|4---2--4----0---|-2--4----2-4----|-4--------------|4---2--4----0---|
|2---------------|-------------0--|-2---------0----|2---------------|
                    
|----------------|----------------|----------------|----------------|
|----------------|----------------|----------------|----------------|
|-4--------4-----|--7-7-7-7-7-7---|--7-7-7-7-7-7---|----7-7-7-7-----|
|-4---2----4-----|--7-7-7-7-7-7---|--7-7-7-7-7-7---|----7-7-7-7-----|
|-2---0----2-----|--5-5-5-5-5-5---|--5-5-5-5-5-5---|----5-5-5-5-----|
|----------------|----------------|----------------|----------------|

Pried.

|-------9------9-------9--|-----------7-----7---------7----|
|----10----10-------------|-------9------9-----------------|
|-9----------------9------|---9-----------------9----------|
|-------------------------|--------------------------------|
|-------------------------|--------------------------------|
|-------------------------|--------------------------------|

|--------7-----7-------7--|---------5------5--------5------|
|----7------7-------------|------7------7------------------|
|-8----------------8------|--6-----------------6-----------|
|-------------------------|--------------------------------|
|-------------------------|--------------------------------|
|-------------------------|--------------------------------|

|----------5------5-----5-|---------4-----4-------4--------|
|-------5-----5-----------|------5-----5-------------------|
|---6---------------6-----|--6----------------6------------|
|-------------------------|--------------------------------|
|-------------------------|--------------------------------|
|-------------------------|--------------------------------|

|---------2----2------2---|-------------0------------------|
|------2-----2------------|-------------3------------------|
|---4-------------4-------|-------------2------------------|
|-------------------------|-------------0------------------|
|-------------------------|--------------------------------|
|-------------------------|--------------------------------|
Po priedainio viskas is naujo.
|----------------|----------------|----------------|----------------||
|----------------|----------------|----------------|----------------||
|-----2-----2----|----2-----2-----|----2-----2-----|----2--------2--||
|----------------|----------------|--4-----4-------|--0--------2----||
|---4-----4----4-|--4-----4-----4-|2-----2-----2---|---------0------||
|2-----2-----2---|0-----0-----0---|--------------2/|3------3-----3--||


|----------------|----------------|----------------|----------------|
|----------------|----------------|----------------|----------------|
|------------2---|----------------|----------------|------------2---|
|4---2--4----2---|-2--4----2-4----|-4--------------|4---2--4----2---|
|4---2--4----0---|-2--4----2-4----|-4--------------|4---2--4----0---|
|2---------------|-------------0--|-2---------0----|2---------------|

|----------------|----------------|----------------|----------------|
|----------------|----------------|----------------|----------------|
|-4--------4-----|--7-7-7-7-7-7---|--7-7-7-7-7-7---|----7-7-7-7-----|
|-4---2----4-----|--7-7-7-7-7-7---|--7-7-7-7-7-7---|----7-7-7-7-----|
|-2---0----2-----|--5-5-5-5-5-5---|--5-5-5-5-5-5---|----5-5-5-5-----|
|----------------|----------------|----------------|----------------|

Video:

Akordai.lt neatsako už akordų turinį ar jų šaltinį, nes akordus mums atsiunčia patys vartotojai.
Nežinote kaip groti vieną ar kitą akordą? Visą akordų sąrašą rasite šiuo adresu: http://chords.lt/gitaros-akordu-sarasas

Komentarai:
komentarų nėra

Jūsų vardas:

Jūsų komentaras:

Įveskite skaičius iš paveiksliuko: