Akordai

Lietuvos atlikėjų akordai (1653) Užsienio atlikėjų akordai (894) Rusijos atlikėjų akordai (220)  



Ludwig van Beethoven "Fur Elise"

Atsiuntė: bkestux (rašyti pranešimą)
Peržiūrėtas: 2523
Komentarų: 0 (skaityti / rašyti komentarus)
Įvertinimas: 10 / 10 (1 balsų)
Vertinti: vertinimas prieinamas tik registruotiems vartotojams
Part 1A

E--12-11-12-11-12-7-10-8-5---------5-7---------7-8-------
B--------------------------------5-----------9-----------
G------------------------------5-----------9-----------9-
D----------------------------7-----------6-----------7---
A--------------------------7-----------7-----------7-----
E------------------------5-----------0-----------5-------

Part 1B

E--12-11-12-11-12-7-10-8-5---------5-7-------8-7-5-------
B--------------------------------5-----------------------
G------------------------------5-----------9-------------
D----------------------------7-----------6-----------7---
A--------------------------7-----------7-----------7-----
E------------------------5-----------0-----------5-------

Part 1A (2nd Time)

E--12-11-12-11-12-7-10-8-5---------5-7---------7-8-------
B--------------------------------5-----------9-----------
G------------------------------5-----------9-----------9-
D----------------------------7-----------6-----------7---
A--------------------------7-----------7-----------7-----
E------------------------5-----------0-----------5-------

Part 1B (2nd Time)

E--12-11-12-11-12-7-10-8-5---------5-7-------8-7-5-------
B--------------------------------5-----------------------
G------------------------------5-----------9-------------
D----------------------------7-----------6-----------7---
A--------------------------7-----------7-----------7-----
E------------------------5-----------0-----------5-------

Part 1C

E--7-8-10-12----------13-12-10---------12-10-
B--------------------------------------------
G------------------12---------------10-------
D---------------10----------------9----------
A------------10-------------10-10------------
E----------8---------------------------------

Part 1C (continued)

E--8-------10-8-7--------12---12-12-<5>--11-12-11-12-11-12-11-
B-------------------------------------------------------------
G--------9-----------9-9----9---------------------------------
D------7------------------------------------------------------
A----7------------7-------------------------------------------
E--5------------0---------------------------------------------

Part 1A (3rd Time)

E--12-11-12-11-12-7-10-8-5---------5-7---------7-8-------
B--------------------------------5-----------9-----------
G------------------------------5-----------9-----------9-
D----------------------------7-----------6-----------7---
A--------------------------7-----------7-----------7-----
E------------------------5-----------0-----------5-------

Part 1B (3rd Time)

E--12-11-12-11-12-7-10-8-5---------5-7-------8-7-5-------
B--------------------------------5-----------------------
G------------------------------5-----------9-------------
D----------------------------7-----------6-----------7---
A--------------------------7-----------7-----------7-----
E------------------------5-----------0-----------5-------

Part 1C (2nd Time)

E--7-8-10-12----------13-12-10---------12-10-
B--------------------------------------------
G------------------12---------------10-------
D---------------10----------------9----------
A------------10-------------10-10------------
E----------8---------------------------------

Part 1C (continued)

E--8-------10-8-7--------12---12-12-<5>--11-12-11-12-11-12-11-
B-------------------------------------------------------------
G--------9-----------9-9----9---------------------------------
D------7------------------------------------------------------
A----7------------7-------------------------------------------
E--5------------0---------------------------------------------

Part 1A (4th Time)

E--12-11-12-11-12-7-10-8-5---------5-7---------7-8-------
B--------------------------------5-----------9-----------
G------------------------------5-----------9-----------9-
D----------------------------7-----------6-----------7---
A--------------------------7-----------7-----------7-----
E------------------------5-----------0-----------5-------

Part 1B (4th Time)

E--12-11-12-11-12-7-10-8-5---------5-7-------8-7-5-------
B--------------------------------5-----------------------
G------------------------------5-----------9-------------
D----------------------------7-----------6-----------7---
A--------------------------7-----------7-----------7-----
E------------------------5-----------0-----------5-------

Part 2A

E---8--8--8--8--------13---12-12----10----18----17-17-15-
B---------8----------------------------------------------
G---9-10-------------------------------------------------
D--10-10-10----7-10-7-10------------12----------------14-
A------------8-----------12------13----13-17-13----------
E-----------------------------13-------------------13----

Part 2A (continued)

E-13-12-10-8---------------------8--------10-11------
B------------11--10---10p8-10/11---------------------
G----9-----9-----------------------------------------
D--------------7-10-7-10---7-------7-10-7-10---------
A-10----10---8-------------------8-----------12------
E----------------------------------------------------

Part 2A (continued)

E--12-------12--13---------------10----------------------
B-------------------10-13--------------12----------------
G-------------------------9----9----10-------------------
D--------10-----12---------------------------------------
A-----12----12------8--10---10---10----------------------
E--12-----------10---------------------------------------

Part 2B

E-----15----15----15----15----15----15----15---------
B--13----------------12----13----15----17------------
G--------12----14------------------------------------
D----------------------------------------------------
A----------------------------------------------------
E----------------------------------------------------

Part 2B (continued)

E--------20-19-17--15-13-12-----15-13----------------
B----------------------------15-------15-------------
G----------------------------------------------------
D----------------------------------------------------
A----------------------------------------------------
E----------------------------------------------------

Part 2B (2nd Time)

E-----15----15----15----15----15----15----15---------
B--13----------------12----13----15----17------------
G--------12----14------------------------------------
D----------------------------------------------------
A----------------------------------------------------
E----------------------------------------------------

Part 2B (continued)

E--20-19-17--15-13-12-----15-13----------------------
B----------------------15-------15-------------------
G----------------------------------------------------
D----------------------------------------------------
A----------------------------------------------------
E----------------------------------------------------

Part 2C

E--12-13-12-11-12---12-11-12--12-11-12-----12-11-12----12-11-12-11-12-11-
B------------------12----------12-----------12----------12------------------
G---------------------------------------------------------------------------
D---------------------------------------------------------------------------
A---------------------------------------------------------------------------
E----------------------------------------------------------------------------

Part 1A (5th Time)

E--12-11-12-11-12-7-10-8-5---------5-7---------7-8-------
B--------------------------------5-----------9-----------
G------------------------------5-----------9-----------9-
D----------------------------7-----------6-----------7---
A--------------------------7-----------7-----------7-----
E------------------------5-----------0-----------5-------

Part 1B (5th Time)

E--12-11-12-11-12-7-10-8-5---------5-7-------8-7-5-------
B--------------------------------5-----------------------
G------------------------------5-----------9-------------
D----------------------------7-----------6-----------7---
A--------------------------7-----------7-----------7-----
E------------------------5-----------0-----------5-------

Part 1C (3rd Time)

E--7-8-10-12----------13-12-10---------12-10-
B--------------------------------------------
G------------------12---------------10-------
D---------------10----------------9----------
A------------10-------------10-10------------
E----------8---------------------------------

E--8-------10-8-7--------12---12-12-<5>--11-12-11-12-11-12-11-
B-------------------------------------------------------------
G--------9-----------9-9----9---------------------------------
D------7------------------------------------------------------
A----7------------7-------------------------------------------
E--5------------0---------------------------------------------

Part 1A (6th Time)

E--12-11-12-11-12-7-10-8-5---------5-7---------7-8-------
B--------------------------------5-----------9-----------
G------------------------------5-----------9-----------9-
D----------------------------7-----------6-----------7---
A--------------------------7-----------7-----------7-----
E------------------------5-----------0-----------5-------

Part 1B (shortened)

E--12-11-12-11-12-7-10-8-5---------5-7-------8-7-
B--------------------------------5---------------
G------------------------------5-----------9-----
D----------------------------7-----------6-------
A--------------------------7-----------7---------
E------------------------5-----------0-----------

Part 3A

E-------------------------------------12-13-13-------13---
B---------------14-----------15-------14-15-15-------15---
G--14-----------12-----------14-------------13-------13---
D---------------14-----------15---------------------------
A---0-0-0-0-0-0--0-0-0-0-0-0--0-0-0-0--0--0--0-0-0-0--0-0-
E---------------------------------------------------------

Part 3A (continued)

E-12---------------------------------------------8----
B-13-----------15-------13-12-10-------10---10--------
G-14--------------------------11-----------------9----
D--------------15-------14-12-10-------10---10--------
A--0-0-0-0-0-0--0-0-0-0--0--0--0-0-0-0--0-0--0-0-0-0--
E-----------------------------------------------------

Part 3A (continued)

E--7--------------------------------------12-13-13-------13----
B------10-----------14-----------15-------14-15-15-------15----
G--7----------------12-----------14----------------------------
D------10-----------14-----------15----------------------------
A-------0-0-0-0-0-0--0-0-0-0-0-0--0-0-0-0--0--0--0-0-0-0--0-0--
E--4-4---------------------------------------------------------

Part 3B

E---------------------------------------------------------
B--6------------------------------------------------------
G--7-----------8-------7-5-3-------2---1-------1---2---4--
D--------------5-------------------0---0-------0---2---2--
A----------------------8-6-5-------1-1-2-2-2-2-2-2-3------
E--6-6-6-6-6-6-6-6-6-6-6-6-6-6-6-6---------------------4--

Part 4

E--------------------------5-8-12-10-8--------
B------------5-----------5-------------12-----
G----------5---7-5-----5----------------------
D--------7---------9-7------------------------
A------7--------------------------------------
E--5-8----------------------------------------

Part 4 (continued)

E--------5-8-12-10-8---------------------------------
B------5-------------12-11-10-9----------------------
G----5--------------------------12-11-10-9-----------
D--7---------------------------------------13-12-----
A----------------------------------------------------
E----------------------------------------------------

Part 4 (continued)

E------------b21-20-19-18-17-16-15-14-13-------------
B----------------------------------------------------
G----------------------------------------------------
D----------------------------------------------------
A----------------------------------------------------
E----------------------------------------------------

Part 1A (Shortened at the Front)

E--------12-11-12-7-10-8-5---------5-7---------7-8-------
B--------------------------------5-----------9-----------
G------------------------------5-----------9-----------9-
D----------------------------7-----------6-----------7---
A--------------------------7-----------7-----------7-----
E------------------------5-----------0-----------5-------

Part 1B (Again)

E--12-11-12-11-12-7-10-8-5---------5-7-------8-7-5-------
B--------------------------------5-----------------------
G------------------------------5-----------9-------------
D----------------------------7-----------6-----------7---
A--------------------------7-----------7-----------7-----
E------------------------5-----------0-----------5-------

Part 1C (4th Time)

E--7-8-10-12----------13-12-10---------12-10-
B--------------------------------------------
G------------------12---------------10-------
D---------------10----------------9----------
A------------10-------------10-10------------
E----------8---------------------------------

E--8-------10-8-7--------12---12-12-<5>--11-12-11-12-11-12-11-
B-------------------------------------------------------------
G--------9-----------9-9----9---------------------------------
D------7------------------------------------------------------
A----7------------7-------------------------------------------
E--5------------0--------------------------------------------
 
Part 1A (Again)

E--12-11-12-11-12-7-10-8-5---------5-7---------7-8-------
B--------------------------------5-----------9-----------
G------------------------------5-----------9-----------9-
D----------------------------7-----------6-----------7---
A--------------------------7-----------7-----------7-----
E------------------------5-----------0-----------5-------

Part 1B (Plus two notes at the end)

E--12-11-12-11-12-7-10-8-5---------5-7-------8-7-5---------
B--------------------------------5-----------------------5-
G------------------------------5-----------9-----------5---
D----------------------------7-----------6-----------7-----
A--------------------------7-----------7-----------7-------
E------------------------5-----------0-----------5---------
Ritmas:
Laikas rimtiems kūriniams... kaip Jūs manot?  Kaip groti šį visiems žinomą kūrinį idėjau pamokų skyriuje. Sėkmės :) 

Akordai.lt neatsako už akordų turinį ar jų šaltinį, nes akordus mums atsiunčia patys vartotojai.
Nežinote kaip groti vieną ar kitą akordą? Visą akordų sąrašą rasite šiuo adresu: http://chords.lt/gitaros-akordu-sarasas

Komentarai:
komentarų nėra

Jūsų vardas:

Jūsų komentaras:

Įveskite skaičius iš paveiksliuko: