Akordai

Lietuvos atlikėjų akordai (1653) Užsienio atlikėjų akordai (894) Rusijos atlikėjų akordai (220)  



Tracy chapman "Fast car"

Atsiuntė: Tomytis911 (rašyti pranešimą)
Peržiūrėtas: 2030
Komentarų: 0 (skaityti / rašyti komentarus)
Įvertinimas: 10 / 10 (1 balsų)
Vertinti: vertinimas prieinamas tik registruotiems vartotojams
Intro
e|----------------|----------------|----------------|----------------|
B|0h1-0-3---3-----|8-----7---7-----|0h1-0-3---3-----|8-----7---7-----|
G|0---0-0-----0---|0-----0-----0---|0---0-0-----0---|0-----0-----0---|
D|----------------|------0---------|----------------|------0---------|
A|3---------------|7---------------|3---------------|7---------------|
E|------3---------|----------------|------3---------|----------------|

e|----------------|----------------|----------------|----------------|
B|0h1-0-3---3-----|8--10-8-7--8--7-|0h1-0-3---3-----|8-----7---7-----|
G|0---0-0-----0---|0---------------|0---0-0-----0---|0-----0-----0---|
D|----------------|--------0-------|----------------|------0---------|
A|3---------------|7---------------|3---------------|7---------------|
E|------3---------|----------------|------3---------|----------------|

VERSE 
e|----------------|----------------|
B|0h1-0-3---3-----|8---8-7---7-----|
G|0---0-0-----0---|0---0-0---0-0---|
D|----------------|------0---------|
A|3---------------|7---------------|
E|------3---------|----------------|

Akordai.lt neatsako už akordų turinį ar jų šaltinį, nes akordus mums atsiunčia patys vartotojai.
Nežinote kaip groti vieną ar kitą akordą? Visą akordų sąrašą rasite šiuo adresu: http://chords.lt/gitaros-akordu-sarasas

Komentarai:
komentarų nėra

Jūsų vardas:

Jūsų komentaras:

Įveskite skaičius iš paveiksliuko: