Akordai

Lietuvos atlikėjų akordai (1653) Užsienio atlikėjų akordai (894) Rusijos atlikėjų akordai (220)  



ДДТ "Ветер"

Atsiuntė: Kusas (rašyti pranešimą)
Peržiūrėtas: 2382
Komentarų: 0 (skaityti / rašyti komentarus)
Įvertinimas: nėra
Vertinti: vertinimas prieinamas tik registruotiems vartotojams
Intro:
  Em         C          Am        D
1|------0---------0----------0----------2^3^2--------   |
2|------0---------1----------1----------------3------   |
3|----0---0-----0---0------2---2-----3----------2----   |2x.
4|---------------------------------------------------   |
5|--2---------3----------0---------0-----------------   |
6|---------------------------------------------------   |

  Em          C         Am       D
1|------0---------0----------0---------3-------------   |
2|------0---------1----------1---------2-------------   |
3|----0---0-----0---0------2---2-----3---3-----------   |
4|---------------------------------------------------   |
5|--2---------3----------0---------0-----------------   |
6|---------------------------------------------------   |
     О прекрасная    даль,     поглотившая 
  Em           C          Am        D
1|------0---------0----------0----------2^3^2--------   |
2|------0---------1----------1----------------3------   |
3|----0---0-----0---0------2---2-----3----------2----   |
4|---------------------------------------------------   |
5|--2---------3----------0---------0-----------------   |
6|---------------------------------------------------   |
    небо
    Em          C          Am        D
1|------0---------0----------0---------3-------------   |
2|------0---------1----------1---------2-------------   |
3|----0---0-----0---0------2---2-----3---3-----------   |
4|---------------------------------------------------   |
5|--2---------3----------0---------0-----------------   |
6|---------------------------------------------------   |
     Облака, как к любимой, прижались к
  Em           C          Am        D
1|------0---------0----------0----------2^3^2--------   |
2|------0---------1----------1----------------3------   |
3|----0---0-----0---0------2---2-----3----------2----   |
4|---------------------------------------------------   |
5|--2---------3----------0---------0-----------------   |
6|---------------------------------------------------   |
   земле
  Em           C          Am        D
1|------0---------0----------0---------3-------------   |
2|------0---------1----------1---------2-------------   |
3|----0---0-----0---0------2---2-----3---3-----------   |
4|---------------------------------------------------   |
5|--2---------3----------0---------0-----------------   |
6|---------------------------------------------------   |
Где ты и я под простой да нескошенной кр- 
  Em           C          Am        D
1|------0---------0----------0----------2^3^2--------   |
2|------0---------1----------1----------------3------   |
3|----0---0-----0---0------2---2-----3----------2----   |
4|---------------------------------------------------   |
5|--2---------3----------0---------0-----------------   |
6|---------------------------------------------------   |
   -ышей     
  Em         C          Am        D
1|------0---------0----------0---------3-------------   |
2|------0---------1----------1---------2-------------   |
3|----0---0-----0---0------2---2-----3---3-----------   |
4|---------------------------------------------------   |
5|--2---------3----------0---------0-----------------   |
6|---------------------------------------------------   |
    Ищем                   друг в друге


 Em           C          Am        D
1|------0---------0----------0---------3-------------   |
2|------0---------1----------1---------2-------------   |
3|----0---0-----0---0------2---2-----3---3-----------   |
4|---------------------------------------------------   |
5|--2---------3----------0---------0-----------------   |
6|---------------------------------------------------   |
    тепло.   Что, что,             Что нам

  G                    D
1|------3---------3----------2---------2-------------   |
2|------3---------3----------3---------3-------------   |
3|----0---0-----0---0------2---2-----2---2-----------   |
4|---------------------------------------------------   |
5|--2---------2----------0---------0-----------------   |
6|---------------------------------------------------   |
   Ве-е-ете-е-ер          Да на это от-
  Em                               C
1|------0---------0-----------------------0----------   |
2|------0---------0-----------------------1----------   |
3|----0---0-----0---0------0----0-------0---0--------   |
4|-----------------------2----2----------------------   |
5|--2---------2----------------------3---------------   |
6|---------------------------------------------------   |
 -ве-е-етит                          Несущейся
   Am                      D
1|------0---------0----------2---------2-------------   |
2|------1---------1----------3---------3-------------   |
3|----2---2-----2---2------2---2-----2---2-----------   |
4|---------------------------------------------------   |
5|--0---------0----------0---------0-----------------   |
6|---------------------------------------------------   |
  ми-и-и-мо               Да сломавший кры-
  G                       D
1|------3---------3-------------2---------2----------   |
2|------3---------3-------------3---------3----------   |
3|----0---0-----0---0---------2---2-----2---2--------   |
4|---------------------------------------------------   |
5|--2---------2-------------0---------0--------------   |
6|---------------------------------------------------   |
   ло-о-о                       И упав между

  G                     D
1|------3---------3----------2---------2-------------   |
2|------3---------3----------3---------3-------------   |
3|----0---0-----0---0------2---2-----2---2-----------   |
4|---------------------------------------------------   |
5|--2---------2----------0---------0-----------------   |
6|---------------------------------------------------   |
    на-а-а-ми               так недолго лю-ю-
Em                                 C
1|------0---------0-----------------------0----------   |
2|------0---------0-----------------------1----------   |
3|----0---0-----0---0------0----0-------0---0--------   |
4|-----------------------2----2----------------------   |
5|--2---------2----------------------3---------------   |
6|---------------------------------------------------   |
    -би-имых                         Разбил он
  Am                     D
1|------0---------0-----------------2^3^2--------0---   |
2|------1---------1------------3-----------3-----0---   |
3|----2---2-----2---2--------2---2-----------2---0---   |
4|-------------------------0-------------------------   |
5|--0---------0----------------------------------2---   |
6|---------------------------------------------------   |
     Объя-а-а-тья              как простое стекло

Akordai.lt neatsako už akordų turinį ar jų šaltinį, nes akordus mums atsiunčia patys vartotojai.
Nežinote kaip groti vieną ar kitą akordą? Visą akordų sąrašą rasite šiuo adresu: http://chords.lt/gitaros-akordu-sarasas

Komentarai:
komentarų nėra

Jūsų vardas:

Jūsų komentaras:

Įveskite skaičius iš paveiksliuko: